Chord/Tab song: Kalifornia - Kashmir

Chord,Tablature, lyric, sheet, guitar, ukulele song: Kalifornia - Kashmir - ( Kashmir - Kalifornia. Intro: Vers: Ka-li-for-nia....)

--
Kashmir - Kalifornia.

Intro:



|----------------------------------------------------------------------------|
|----------------------------------------------------------------------------|
|-------------------------0-0-0-0-0-0-0-0-0----------------------------------|
|--0-4-0--0-4-0--0-4-0--0--------------------0-4-0-0-4-0---1-1-1-1-1-1-1-1-1-|
|-2------0----------------------------------2-----0-------0------------------|
|---------------3------0---------------------------------5-------------------|
----------------------------------------------------------------------|
----------------------------------------------------------------------|
-------------------------0-0-0-0-0-1-0-0-0----------------------------|
--0-4-0--0-4-0--0-4-0--0--------------------0-4-0-0-1-1-1-1-1-1-1-1-1-|
-2------0----------------------------------2-----0--------------------|
---------------3------0-----------------------------------------------|


Vers:



|--------------------------------------------------------------------------|
|--------------------------------------------------------------------------|
|------------------------0-0-0-0-0-0-0-0-0---------------------------------|
|--0-4-0--0-4-0--0-4-0--0-------------------0-4-0--0-4-0---1-1-1-1-1-1-1-1-|
|-2------0---------------------------------2------0-------0----------------|
|---------------3------0---------------------------------5-----------------|

Ka-li-for-nia...



-----------------------------------------------------------------------------|
-----------------------------------------------------------------------------|
--------------------------0-0-6-0-6-7-0-7------------------------------------|
1--0-4-0--0-4-0--0-4-0--0------------------0-4-0--0-1-1-1-1-1-1-1-1-1-1--0-4-|
--2------0--------------------------------2------0----------------------2----|
----------------3------0-----------------------------------------------------|
-----------------------------------------------------------------------------|
-----------------------------------------------------------------------------|
--------------------0-0-0-0-0-1-0-0-0----------------------------------------|
-0--0-4-0--0-4-0--0--------------------0-4-0--0-4-0---1-1-1-1-1-1-1-1-1--0-4-|
---0----------------------------------2------0-------0------------------2----|
----------3------0----------------------------------5------------------------|
--------------------------------------------------------------------|
--------------------------------------------------------------------|
--------------------0-0-6-0-6-7-7-7---------------1-1-1-1-1-1-1-1-1-|
-0--0-4-0--0-4-0--0------------------0-4-0--0-4-0-------------------|
---0--------------------------------2------0------------------------|
----------3------0--------------------------------------------------|


[D]restles[A]s [D]restle[Em]ss

[D]Windswe[A]pt |-3-2-|
|-3-2-|
|-4-3-|
|-5-4-|
|-5-4-|
|-3-2-|
Road.
[D]Take [A]me |-3-0-|
|-3-0-|
|-4-0-|
|-5-2-|
|-5-2-|
|-3-0-|
some place.
[D]Un-fold |-5-|
|-5-|
|-6-|
|-7-|
|-7-|
|-5-|

Vers: That's the same as first vers.

[D]restles[A]s [D]restle[Em]ss

[D]Windswep[A]t |-3-2-|
|-3-2-|
|-4-3-|
|-5-4-|
|-5-4-|
|-3-2-|
Road.

[D]Take [A]me |-3-0-|
|-3-0-|
|-4-0-|
|-5-2-|
|-5-2-|
|-3-0-|
some place.

[D]Un-fold |-5-|
|-5-|
|-6-|
|-7-| play it a lots of time, the chords, and the it stops when the
|-7-| the solo come, so you can just play until the solo.
|-5-|

Listen to the song to get the right rythm.

Chords List

Chord: Kalifornia - Kashmir - tab, song lyric, sheet, guitar, ukulele
Maybe you like