Chord/Tab song: Judgement - Before the Dawn

Chord,Tablature, lyric, sheet, guitar, ukulele song: Judgement - Before the Dawn - ( JUDGEMENT - Before the Dawn Tabbed by: Sam Email: net...)

--

-----------------------------------------------------------------------------

JUDGEMENT - Before the Dawn


-----------------------------------------------------------------------------

Tabbed by: Sam
Email: nether-drake@hotmail.com

Tuning: Drop C (CGCFAD)

MAIN RIFF

Guitar 1


D|------------------------------------------|
A|------------------------------------------|
F|------------------------------------------|
C|--7-7----0-0-0----10-10-10----9-9---------|
G|--7-7----0-0-0----10-10-10----9-9---------|
C|--7-7-00-0-0-0-00-10-10-10-00-9-9-00------|

PM PM PM PM



D|------------------------------------------|
A|------------------------------------------|
F|------------------------------------------|
C|--7-7----0-0-0----10-10-10----5-5---------|
G|--7-7----0-0-0----10-10-10----5-5---------|
C|--7-7-00-0-0-0-00-10-10-10-00-5-5---0000--|

PM PM PM PM--|

Guitar 2


D|------------------------------------------|
A|------------------------------------------|
F|------------------------------------------|
C|--7-7-00-0-0-0-00-10-10-10-00-9-9-00------|
G|------------------------------------------|
C|------------------------------------------|

PM PM PM PM



D|------------------------------------------|
A|------------------------------------------|
F|------------------------------------------|
C|--7-7-00-0-0-0-00-10-10-10-00-5-5---0000--|
G|------------------------------------------|
C|------------------------------------------|

PM PM PM PM--|

[Bass]


D|------------------------------------------|
A|------------------------------------------|
F|------------------------------------------|
C|------------------------------------------|
G|------------------------------------------|
C|--7-7--0-0-0-0--0-10-10-10--0-9-9--0-0----|
D|------------------------------------------|
A|------------------------------------------|
F|------------------------------------------|
C|------------------------------------------|
G|------------------------------------------|
C|--7-7--0-0-0-0--0-10-10-10--0-5-5----0-0--|


VERSE

[Bass]

D|-------------------------------------------------------------------|
A|-------------------------------------------------------------------|
F|-------------------------------------------------------------------|
C|-------------------------------------------------------------------|
G|-------------------------------------------------------------------|
C|--0-0-0-0-0-0-0-0-3-3-3-3-3-3-3-3-5-5-5-5-5-5-5-5-7-7-7-7-7-7-7-7--|


PRE CHORUS
Guitar 1


D|-------------------------------------------------------------------|
A|-------------------------------------------------------------------|
F|-------------------------------------------------------------------|
C|--0---------------3---------------5--------------------------------|
G|-------------------------------------------------------------------|
C|-------------------------------------------------------------------|
D|-------------------------------------------------------------------|
A|-------------------------------------------------------------------|
F|-------------------------------------------------------------------|
C|--0---------------3---------------5--------------------------------|
G|-------------------------------------------------------------------|
C|-------------------------------------------------------------------|


Guitar 2


D|-------------------------------------------------------------------|
A|-------------------------------------------------------------------|
F|-------------------------------------------------------------------|
C|--0---------------3---------------5-------------\0-----------------|
G|--0---------------3---------------5-------------\0-----------------|
C|--0---------------3---------------5-------------\0-----------------|

( Tab from: http://www.guitartabs.cc/tabs/b/before_the_dawn/judgement_tab.html )


D|-------------------------------------------------------------------|
A|-------------------------------------------------------------------|
F|-------------------------------------------------------------------|
C|--0---------------3---------------5--------------------------------|
G|--0---------------3---------------5--------------------------------|
C|--0---------------3---------------5--------------------------------|


[Bass]

D|-------------------------------------------------------------------|
A|-------------------------------------------------------------------|
F|-------------------------------------------------------------------|
C|-------------------------------------------------------------------|
G|-------------------------------------------------------------------|
C|--0-0-0-0-0-0-0-0-3-3-3-3-3-3-3-3-5-5-5-5-5-5-5-5-7-7-7-7-7-7-7-7--|


CHORUS

Guitar 1


D|--------------------------------------------------------------------------|
A|--------------------------------------------------------------------------|
F|--------------------------------------------------------------------------|

C|--1210141517141012--|


G|--------------------------------------------------------------------------|
C|--------------------------------------------------------------------------|


Guitar 2


D|--------------------------------------------------------------------------|
A|--------------------------------------------------------------------------|
F|--------------------------------------------------------------------------|
C|-0-0-0-0-0-0-0-0-8-8-8-8-8-8-8-8-3-3-3-3-3-3-3-3-10-10-10-10-10-10-10-10--|
G|-0-0-0-0-0-0-0-0-8-8-8-8-8-8-8-8-3-3-3-3-3-3-3-3-10-10-10-10-10-10-10-10--|
C|-0-0-0-0-0-0-0-0-8-8-8-8-8-8-8-8-3-3-3-3-3-3-3-3-10-10-10-10-10-10-10-10--|


[Bass]

D|--------------------------------------------------------------------------|
A|--------------------------------------------------------------------------|
F|--------------------------------------------------------------------------|
C|--------------------------------------------------------------------------|
G|--------------------------------------------------------------------------|
C|-0-0-0-0-0-0-0-0-8-8-8-8-8-8-8-8-3-3-3-3-3-3-3-3-10-10-10-10-10-10-10-10--|


SOLO



D|---------------------------------------------------------------------|
A|---------------------------------------------------------------------|
F|-----------------------0-5p3-----2h3--/5--/7~--9-10-12-12-12-12b13--|
C|--12~-10~-8-7-8--7--3~-------3h5-------------------------------------|
G|---------------------------------------------------------------------|
C|---------------------------------------------------------------------|


Slow bend



D|----------------------------------------------------------|
A|-----------------------13---------------------------------|
F|--12p10----------12b14----12b14---12--10-----9h10p9-------|
C|--------12~-------------------------------12---------12~--|
G|----------------------------------------------------------|
C|------------\\\\------------------------------------------|


Main Riff (Guitar 1 & Guitar 2 & Bass) x4
Verse (Bass) x2
Pre Chorus (Guitar 1 & Guitar 2 & Bass) x1
Main Riff (Guitar 1 & Guitar 2 & Bass) x2
Chorus (Guitar 1 & Guitar 2 & Bass) x2
Main Riff (Guitar 1 & Guitar 2 & Bass) x2
Verse (Bass) x2
Pre Chorus (Guitar 1 & Guitar 2 & Bass) x1
Main Riff (Guitar 1 & Guitar 2 & Bass) x2
Chorus (Guitar 1 & Guitar 2 & Bass) x2
Solo (Guitar 1) x1
Chorus (Guitar 1 & Guitar 2 & Bass) x2



| / slide up
| \ slide down
| h hammer-on
| p pull-off
| ~ vibrato
| + harmonic
| x Mute note
| b Bend
| pb Pre-bend
| br Bend release
| pbr Pre-bend release
| brb Bend release bend
| Tremolo pick

Chords List

Chord: Judgement - Before the Dawn - tab, song lyric, sheet, guitar, ukulele
Maybe you like