Chord/Tab song: John - The Young Knives

Chord,Tablature, lyric, sheet, guitar, ukulele song: John - The Young Knives - ( The Young Knives ? John This sounds right to me, although...)

--
The Young Knives ? John
This sounds right to me, although it isn?t perfect (I probably missed out a few
if you have any corrections or comments, e-mail me at jimbob323@hotmail.co.uk

Guitar 1 ? verse/intro


e--------------------------------------------------------|
B--------------------------------------------------------|
G-9-9-9-9-9-9-9-9-7-7-7-7--------------------------------|
D-9-9-9-9-9-9-9-9-7-7-7-7--------------------------------|
A-7-7-7-7-6-6-6-6-5-5-5-5-6-5-4-6-5-4-6------------------|
e--------------------------------------------------------|


Guitar 2 ? verse/intro


e--------------------------------------------------------|
B--------------------------------------------------------|
G--------------------------------------------------------|
D-2-2-2-2-8-8-8-8-7-7-7-7--------------------------------|
A-2-2-2-2-8-8-8-8-7-7-7-7--------------------------------|
e?0-0-0-0-6-8-8-8-5-5-5-5--------------------------------|


Guitar 1? Chorus and solo rhythm
[D] [E] [B] [B] [B] [B]

e--------------------------------------------------------|
B-7----9-------------------------------------------------|
G-7----9----8-8-8-8--4-4-4-4-----------------------------|
D-7----9----9-9-9-9--5-5-5-5-4-4-4-x-3-3-----------------|
A-5----7----9-9-9-9--5-5-5-5-4-4-4-x-3-3-----------------|
e?----------7-7-7-7--3-3-3-3-2-2-2-x-1-1-----------------|


Solo (lead) listen to song for timing


e-----------------------------------------------------17----------17-----|
B-10-10-11-11-11-12>-------------------------------15----15----15--------|
G--------------------9--------10>9-7-7-9-7-9-11-16----------16-----------|
D----------------------8-10-7--------------------------------------------|
A------------------------------------------------------------------------|
e?-----------------------------------------------------------------------|

x2

Bridge (listen to song for rhythm)


e--------------------------------------------------------|
B--------------------------------------------------------|
G-----------7--------------------------------------------|
D-5---------7--------------------------------------------|
A-5---------5--------------------------------------------|
e?3------------------------------------------------------|


Outro (listen to song for rhythm)


e--------------------10------------------------16--------|
B---------------------9--------------------------17------|
G---------------------9------------------------16--------|
D---------------------9----------------------------------|
A-7-8-9-7-8-9-7-----------7-8-9-7-8-9-7------------------|
e?-------------------------------------------------------|

J J J J J J John! J J J J J J John!

Chords List

Chord: John - The Young Knives - tab, song lyric, sheet, guitar, ukulele
Maybe you like