Hợp âm - tab: Ice Cream Man - Tom Waits - cảm âm - lời bài hát

Cảm âm, tablature, hợp âm, tabs guitar, ukulele, lời bài hát: Ice Cream Man - Tom Waits - ( Very simple song, listen to the track for the rhythm. In...)

--
Very simple song, listen to the track for the rhythm.

Intro:



E--------3--1--3--1--3--1-------|------------------------------------|
B--1--4--------------------4--3-|-1--3--4--1--3--4--1--3--4--3--1--0-|
G-------------------------------|------------------------------------|
D-------------------------------|------------------------------------| X2
A-------------------------------|------------------------------------|
E-------------------------------|------------------------------------|
E--------3--1--3--1-------|
B--1--4--------------4--3-|
G-------------------------|
D-------------------------|
A-------------------------|
E-------------------------|


Verse:

Come Clicki[Cm]n' by your [Bb7]house about [Ab7]two forty-[G7]five
With [Cm]Sidewalk [Bb7]sundae straw[Ab7]berry surp[G7]rise,
I got a [Cm]cherry popsicle [F7]right on time
A [G7]big stick, mamma, that'll blow your mind

Chorus:

'Cause I'm your [Cm]ice cream m[Bb7]an, [Ab7][G7]
I'm a [Cm]one-man [Bb7]band[Ab7][G7]
I'm your [Cm]ice cream m[Bb7]an, ba[Ab7]by, I'll be [G7]good to you.

Verse:

If you missed me in the alley, baby, don't you fret
Come back around and don't forget,
When you're tired and you're hungry and you want something cool,
Got something better than a swimming pool

Chorus:

'Cause I'm your ice cream man,
I'm a one-man band
I'm your ice cream man, honey, I'll be good to you.

Solo:

Chorus:

'Cause I'm your ice cream man,
I'm a one-man band
I'm your ice cream man, honey, I'll be good to you.

Verse:

You see me coming, you ain't got no change
Don't worry baby, it can be arranged
Show me you can smile, baby just for me
Fix you with a drumstick, I'll do it for free

Chorus:

'Cause I'm an ice cream man,
I'm a one-man band
I'm an ice cream man, and I'll be good to you.
Be good to you, be good to you,
Good to you ya,
Good to you ya,
Good to you ya,
Good to you ya,
Good to you ya,
Good to you, I'll be good to you
I'll be good to you,
Don't ya know I'm gonna be good ya,
Be good ya.

Danh sách hợp âm

Hợp âm: Ice Cream Man - Tom Waits - cảm âm, tab guitar, ukulele - lời bài hát
Có thể bạn thích