Chord/Tab song: I'm a Rat - Towers of London

Chord,Tablature, lyric, sheet, guitar, ukulele song: I'm a Rat - Towers of London - ( [(a)] [(b)] (c) [(d)] (e) (f) (g...)

--
[(a)]


|---------------------------------------------------------------------|
|---------------------------------------------------------------------|
|--------------5----------------------------------5-------------------|
|-----7----------------5--------7--------7----------------5-------7---|


[(b)]


|-------------|
|-------------|
|-------------|
| -5-5-5-77---|


(c)



|-------------------------------------------------------------------|
|-------------------------------------------------------------------|
|----------------5-55555555555556-----------------------------------|
|7-77777777777778----------------5-555555555555567-77777777777777---|


[(d)]



|---------------------------------------------------------------------|
|---------------------------------------------------------------------|
|----------------55-5555-------------------------10-108866------------|
|-7-7777--------------------------55-5555-----------------997755333---|


(e)



|-------------------------------------------------------------|
|-------------------------------------------------------------|
|----------------5-5-55-55-55-567-7-77-77-77-78---------------|
|-7-7-77-77-77-78------------------------------7-7-77-77-77---|


(f)



|------------------------------------------------------------|
|------------------------------------------------------------|
|------------------------------------------------------------|
|7-777777777777763-333333333333320-000000000000057-7777777---|


(g)



|-------------------------------------------------------------------|
|-------------------------------------------------------------------|
|----------------5-555555555555567-77777777777778-------------------|
|7-77777777777778--------------------------------7-77777777777777---|


Order:

Pause for two guitar intros
(a) x 1
(b) x 5
(c) x 1
(d) x 1
(e) x 1
(f) x 1
(b) x 1
(c) x 1
(d) x 1
(e) x 1
(f) x 1
(b) x 1
(g) x 2
(e) x 1
(g) x 1 (Not too sure about the very end)

CHOOON!!

Chords List

Chord: I'm a Rat - Towers of London - tab, song lyric, sheet, guitar, ukulele
Maybe you like