Chord/Tab song: I Fell - The Handsome Family

Chord,Tablature, lyric, sheet, guitar, ukulele song: I Fell - The Handsome Family - ( [A] [B] [E] [A]There's a mountain north of W[B]innipeg b...)

--
[A] [B] [E]
[A]There's a mountain north of W[B]innipeg
buried under i[E]ce,
[A]and as the black clouds r[B]oll above
white pines crack like gl[E]ass

[A]Walking under those sw[B]aying trees,
branches bowed with i[E]ce,
[A]I wanted one to f[B]all on me
to pin me in the sn[E]ow

That silver f[G#m]orest [A]
reminded [G#m]me of you[A]
and how I [G#m]kissed you
and I f[A]ell down to the b[B]ottom of a well[E]

[A] [B] [E]

|-5---4-2-5-4-2-------2---------------------5-4-2--9--7-7---5h7p5-4-|
|---------------4--------------------4-2-0--------------------------|
|-----------------------2-----2-1-----------------------------------|
|---------------------------------4---------------------------------|
|-------------------------------------------------------------------|
|-------------------------------------------------------------------|

(PIANO ARR. FOR GUITAR)

[A]Down a dirt road west of [B]El Paso
behind a burning b[E]arn,
[A]I stumbled on a h[B]orse's bones
bleaching in the s[E]and

[A]But when I reached down to t[B]ouch the skull
underneath my h[E]and,
a str[A]eam of orange lizards p[B]oured out
from the bone-white mo[E]uth

That empty m[G#m]outh [A]
reminded [G#m]me of you[A]
and how I [G#m]kissed you
and I f[A]ell down to the b[B]ottom of a well[E]

[G#m] [A] [G#m] [A] [G#m] [A] [B]
[E]
|-------4------------4-5-4-----5-7-12--16---12-11-9------------------------|
|-5-4-2----4---5-4-2---------------------16---------10-12-9-7---5-4--2-0-0-|
|--------------------------------------------------------------------------|
|--------------------------------------------------------------------------|
|--------------------------------------------------------------------------|
|--------------------------------------------------------------------------|

(PIANO ARR. FOR GUITAR)

[E]

Chords List

Chord: I Fell - The Handsome Family - tab, song lyric, sheet, guitar, ukulele
Maybe you like