Chord/Tab song: I Celebrate the Day - Relient K

Chord,Tablature, lyric, sheet, guitar, ukulele song: I Celebrate the Day - Relient K - ( [D] [D/B] [D/A] [D] [D/G] [D/F#] [D/E] [D] [D/B] [D/A][D...)

--
[D] [D/B] [D/A] [D]
[D/G] [D/F#] [D/E] [D] [D/B] [D/A][D/G]
[D/G] [D/F#] [D/E] [D] [Asus] [A]
[D/G] [D/F#] [D/E] [D] [D/B] [D/A][D/G]
[D/G] [D/F#] [D/E] [D]
[Asus]
[G] [D] [Bm] [Asus]
[G] [D] [Bm] [Asus]
[D/G] [D/F#] [D/E] [D] [D/B] [D/A] [D/G]

[D/G] [D/F#] [D/E] [D] [D/B] [D/A][D/G]
[D/G] [D/F#] [D/E] [D] [Asus]
[G] [D] [Bm] [Asus]
[G] [D] [Bm] [Asus]
[G] [D] [Bm] [Asus]
[G] [D] [Bm] [Asus]
Chorus:
[D/G] [D/F#] [D/E] [D] [D/B] [D/A] [D/G][D/G]
[D/F#] [D/E] [D] [D/B] [D/A] [D/G]
[D/B] [D/A] [D/G] [D/B] [D/A] [D/G]

~the songs played on piano, but heres the tab for guitar as close as I
could figure it~

INTRO:
[D] [D/B] [D/A] [D]

e------------------ ------------------
b-3-3-3-3-3-3-3-3-- -3-3-3-3-3-3-3-3--
g--2-2-2-2-2-2-2-2- --2-2-2-2-2-2-2-2-
d------------------ ---------0--------
a------------------ -2---0------------
e------------------ ------------------


VERSE 1:
[D/G] [D/F#] [D/E] [D] [D/B] [D/A] [D/G] [D/G] [D/F#] [D/E] [D]

e------------------- ------------------ -------------------
b-3-3-3-3--3-3-3-3-- -3-3-3-3-3-3-3-3-- -3-3-3-3--3-3-3-3--
g--2-2-2-2--2-2-2-2- --2-2-2-2-2-2-2-2- --2-2-2-2--2-2-2-2-
d-5---4----2---0---- ------------------ -5---4----2---0----
a------------------- -2---0------------ -------------------
e------------------- ---------3-------- -------------------


[Asus] [A] [D/G] [D/F#] [D/G] [D/B] [D/A] [D/G]

e------------------- ------------------- ------------------
b-3-3-3-3--2-2-2-2-- -3-3-3-3--3-3-3-3-- -3-3-3-3-3-3-3-3--
g--2-2-2-2--2-2-2-2- --2-2-2-2--2-2-2-2- --2-2-2-2-2-2-2-2-
d------------------- -5---4----2---0---- ------------------
a-0----------------- ------------------- -2---0------------
e------------------- ------------------- ---------3--------


[D/G] [D/F#] [D/E] [D] [Asus]

e------------------- ------------------
b-3-3-3-3--3-3-3-3-- -3333333333333333-
g--2-2-2-2--2-2-2-2- -2222222222222222-
d-5---4----2---0---- -2222222222222222-
a------------------- -0000000000000000-
e------------------- ------------------


CHORUS:

G D Bm Asus x4

[D/G] [D/F#] [D/E] [D] [D/B] [D/A] [D/G]

e------------------- ------------------
b-3-3-3-3--3-3-3-3-- -3-3-3-3-3-3-3-3--
g--2-2-2-2--2-2-2-2- --2-2-2-2-2-2-2-2-
d-5---4----2---0---- ------------------
a------------------- -2---0------------
e------------------- ---------3--------


VERSE 2: (same as VERSE 1)

BRIDGE:

G D Bm Asus x4

CHORUS x2

OUTRO:
[D/G] [D/F#] [D/E] [D] [D/B] [D/A] [D/G] [D/G] [D/F#] [D/E] [D]

e------------------- ------------------ -------------------
b-3-3-3-3--3-3-3-3-- -3-3-3-3-3-3-3-3-- -3-3-3-3--3-3-3-3--
g--2-2-2-2--2-2-2-2- --2-2-2-2-2-2-2-2- --2-2-2-2--2-2-2-2-
d-5---4----2---0---- ------------------ -5---4----2---0----
a------------------- -2---0------------ -------------------
e------------------- ---------3-------- -------------------


[D/B] [D/A] [D/G] [D/B] [D/A] [D/G] [D/B] [D/A] [D/G] [D]

e------------------ ------------------ ------------------ ---
b-3-3-3-3-3-3-3-3-- -3-3-3-3-3-3-3-3-- -3-3-3-3-3-3-3-3-- -3-
g--2-2-2-2-2-2-2-2- --2-2-2-2-2-2-2-2- --2-2-2-2-2-2-2-2- -2-
d------------------ ------------------ ------------------ -0-
a-2---0------------ -2---0------------ -2---0------------ ---
e---------3-------- ---------3-------- ---------3-------- ---

Chords List

Chord: I Celebrate the Day - Relient K - tab, song lyric, sheet, guitar, ukulele
Maybe you like