Chord/Tab song: Gone - The Head and the Heart

Chord,Tablature, lyric, sheet, guitar, ukulele song: Gone - The Head and the Heart - ( Gone - The Head and the Heart Tabbed by: scarlberg25 ...)

--

-------------------------------------------------------------------------------

Gone - The Head and the Heart


-------------------------------------------------------------------------------

Tabbed by: scarlberg25

Personally my favourite song from their new album. Great Band.

Capo 1

Intro:

[A] [Asus4] [A] [Asus4]

[A]There were times you should have [Asus4]stopped
As you sailed into the fog[A]
Like a dog I smelled your[Asus4] fear
Lord know you shoul[C#m]dve been h[Bm]ere with me[A], but you were gone

[A]These days roll sleepily b[Asus4]y
I can hear the old trains cry[A]
They will always be at home[Asus4]
Pulling me away from you[A]

[A]Youre goo[C#m]oone goo[Bm]ooone g[A]one
[A]Gooo[C#m]oone goo[Bm]one g[A]one

[A]Gone are the days when the wind would brush my face
[Asus4]Gone are the days when youre the wind
And [A]gooooo[C#m]one are the [Bm]days when my heavy hea[F#m]rt
was w[E]orn on my sle[A]eve

[A]Oooooooooooooooo[Asus4]o x2

[Asus4]Take back your pictures[A]
Take back your letters
Dont send me no p[Asus4]ostcards telling me you miss me
Cause Im t[A]rying here
Oh,[Asus4] Im trying here
Fuck what theyre sa[A]ying
'Cause my mind is made up
And theyre all just[Asus4] starving
Like the rest of us
And Im t[A]rying here, oh Im trying here[Asus4]
And you don't even see[A][Asus4]

[A]Gone are the days when the wind would brush my face
[Asus4]Gone are the days when youre the wind
And [A]gooooo[C#m]one are the [Bm]days when my heavy hea[F#m]rt
was w[E]orn on your s[A]leeve

A Asus4 x2



e |-----------------------------------------|
B |-----------------------------------------|
G |--------1h2--1---------------------------|
D |-----------------2-------2---------------| x2
A |---0-0---------------4-------------------|
E |-----------------------------------------|
e |-----------------------------------------|
B |-----------------------------------------|
G |----------1h2--1-------------------------|
D |---0-0-------------2---0---2-------------| x2
A |-----------------------------------------|
E |-----------------------------------------|


(Doo doo doo doo do do)

[A]Whether it's your head or your heart

And you're too damn scared to start
[Asus4]It's in your mind and your soul

But you just don't know where to go

[A]It's in your head and your heart

And you're too damn scared to start
[Asus4]It's in your mind and your soul

But you just don't know where to go
[A]Now you're gone

Chords List

Chord: Gone - The Head and the Heart - tab, song lyric, sheet, guitar, ukulele
Maybe you like