Chord/Tab song: Gangnam Style (failed - reindex) - PSY

Chord,Tablature, lyric, sheet, guitar, ukulele song: Gangnam Style (failed - reindex) - PSY - ( I have the guitar and the bass, so yeah..... Tuning: -Cl...)

2 years ago438 Other Songs PSY
--
I have the guitar and the bass, so yeah.....

Tuning:
-Clean Guitar: BEADGC
-Bass: BEAD

INTRO/"Ehhhh Sexy Lady" Part


----------------------------

Guitar


C|------------------------------|
G|------------------------------| | |
D|------------------------------| \/ |--|
A|------------------------------| /\ |
E|--7-7-7-7-7-10---7-7-7--------|
B|-0-------------0-------11-10-9|


[Bass]

D|------------------------------| | |
A|------------------------------| \/ |--|
E|--7-7-7-7-7-10---7-7-7--------| /\ |
B|-0-------------0-------11-10-9|


Guitar


C|------------|
G|------------|
D|------------|
A|-7-7-7-9-9-9|
E|-7-7-7-9-9-9|
B|-5-5-5-7-7-7|


[Bass]

D|------------|
A|------------|
E|------------|
B|-5-5-5-7-7-7|


Verse
[-----]Guitar


C|------------------------------|
G|------------------------------|
D|------------------------------|
A|------------------------------| X8
E|--7-7-7-7-7-10---7-7-7--------|
B|-0-------------0-------11-10-9|


[Bass]

D|------------------------------|
A|------------------------------|
E|--7-7-7-7-7-10---7-7-7--------| X8
B|-0-------------0-------11-10-9|


Guitar


C|------------|
G|------------|
D|------------|
A|-7-7-7-9-9-9|
E|-7-7-7-9-9-9|
B|-5-5-5-7-7-7|


[Bass]

D|------------|
A|------------|
E|------------|
B|-5-5-5-7-7-7|

(All of Verse X2)

Chorus


------

Guitar


C|----------------------------------------------------------------------------------------|
G|----------------------------------------------------------------------------------------|
D|----------------------------------------------------------------------------------------|
A|----------------------------------------------------------------------------------------|
E|-9-9-9-9-9-9-9-9-11-11-11-11-11-11-11-11-14-14-14-14-14-14-14-14-14-14-14-14-14-14-14-14|
B|-7-7-7-7-7-7-7-7-9--9--9--9--9--9--9--9--12-12-12-12-12-12-12-12-12-12-12-12-12-12-12-12|


[Bass]

D|--------------------------------------------------------------------------------|
A|--------------------------------------------------------------------------------|
E|--------------------------------------------------------------------------------|
B|-7-7-7-7-7-7-7-7-9-9-9-9-9-9-9-9-12-12-12-12-12-12-12-12-12-12-12-12-12-12-12-12|


Guitar


C|-----------------------------------------------------------------------------|
G|-----------------------------------------------------------------------------|
D|-----------------------------------------------------------------------------|
A|-9-9-9-9-9-9-9-9-11-11-11-11-11-11-11-11-(8 Repeatedly, I ran out of room...)|
E|-9-9-9-9-9-9-9-9-11-11-11-11-11-11-11-11-(8 Repeatedly, I ran out of room...)|
B|-7-7-7-7-7-7-7-7-9--9--9--9--9--9--9--9--(6 Repeatedly, I ran out of room...)|


[Bass]

D|---------------------------------------------------------------------|
A|---------------------------------------------------------------------|
E|---------------------------------------------------------------------|
B|-7-7-7-7-7-7-7-7-9-9-9-9-9-9-9-9-(6 Repeatedly, I ran out of room...)|

Chords List

Chord: Gangnam Style (failed - reindex) - PSY - tab, song lyric, sheet, guitar, ukulele
Maybe you like