Chord/Tab song: Fuel Set - 8 Foot Sativa

Chord,Tablature, lyric, sheet, guitar, ukulele song: Fuel Set - 8 Foot Sativa - ( Tuning:drop Db(low to high)Db-Ab-Db-Gb-Bb-Eb Gtr I Intro ...)

--
Tuning:drop Db(low to high)Db-Ab-Db-Gb-Bb-Eb
Gtr I
Intro
4x


||----------------------|-------11-11-11-11-11--||
||o---------------------|-------11-11-11-11-11-o||
||--5s7-7-7-7-5s7-7-7-7-|-8-8-8--8--8--8--8--8--||
||----------------------|-----------------------||
||o---------------------|----------------------o||
||----------------------|-----------------------||


~~
4x


||-------11------11------|-------15-------15------||
||o---11----11------11---|----15----15-------15--o||
||--8----------8-------8-|-12----------12---------||
||-----------------------|------------------------||
||o----------------------|-----------------------o||
||-----------------------|------------------------||


4x


||-----------------------|---------------------||
||o----------------------|--------------------o||
||--7-7-7-7b7.5r(7)-7-7--|-7-7-7-7b8r(7)-7-7---||
||--x-x-x-x-----(x)-x-x--|-x-x-x-x---(x)-x-x---||
||o-5-5-5-5b5.5r(5)-5-5--|-5-5-5-5b6r(5)-5-5--o||
||-----------------------|---------------------||


Chorus


PM--------------------| PM----------------------| 2x
||----------------|-----------------|---------------|-----------------||
||o---------------|-----------------|---------------|----------------o||
||----------------|---------7-7-6-6-|---------------|-----------------||
||----------------|-----------------|---------------|-----------------||
||o-0p3-1-0-1--1--|-0p3-1-0---------|-0p3-1-0-1--1--|-3--3--3-0-1p0--o||
||--0p3-1-0-1--1--|-0p3-1-0---------|-0p3-1-0-1--1--|-3--3--3-0-1p0---||
||--------------------|------------------|
||o-------------------|------------------|
||--------------------|------------------|
||--------[7]----[6]--|-----5----6-5h6p5-|
||o-5-5-5------5------|-5-5---5----------|
||--------------------|------------------|

a.h a.h
2x


|------------------|--------------------||
|------------------|-------------------o||
|----------------7-|--------------------||
|-------[7]----6---|-----5----6-5h6p5---||
|-5-5-5------5-----|-5-5---5-----------o||
|------------------|--------------------||

a.h

pre verse 4x


||---------------------|----------------------||
||o--------------------|---------------------o||
||--7-7-7-7b8r(7)-7-7--|-9-9-9-9b10r(9)-9-9---||
||--x-x-x-x---(x)-x-x--|-x-x-x-x----(x)-x-x---||
||o-5-5-5-5b6r(5)-5-5--|-7-7-7-7b8r(7)-7-7--o||
||---------------------|----------------------||


Verse


PM--------| PM PM--------| PM x4
||---------------------|---------------------||
||o--------------------|--------------------o||
||---------------------|---------------------||
||-----------------6---|----------------6----||
||o----------------6---|----------------6---o||
||--0-0-0-0-0-0--0-6---|-0-0-0-0-0-0--0-6----||



fill.


|----------|
|----------|
|-7--------|
|-7--------|
|-5--------|
|----------|


Outro


PM----------|
|----------------|
|----------------|
|----------------| all the riffs are there just piece them togather
|----------------|
|----------------|
|-0-0-0-0-0-0----|


shoutout to korotz & munky

Chords List

Chord: Fuel Set - 8 Foot Sativa - tab, song lyric, sheet, guitar, ukulele
Maybe you like