Chord/Tab song: Freak on a Leash - Korn

Chord,Tablature, lyric, sheet, guitar, ukulele song: Freak on a Leash - Korn - ( -------------------------------------------------------...)

--
-----------------------------------------------------------------------------------------

Freak On A Leash- Korn


-----------------------------------------------------------------------------------------


by: Daniel(PunkDudez471@AOL.com)

INTRO/VERSE


e[------------------17---------------------------10-------------------------------------]
B[--15~-----------------16--------------------8-----------------------------------------]
G[-----------------------------------------8--------------------------------------------]
D[--------------------------------------------------------------------------------------]
A[--------------------------------------------------------------------------------------]
E[--------------------------------------------------------------------------------------]


PRE-CHORUS


e[--------------------------------------------------------------------------------------]
B[--------------------------------------------------------------------------------------]
G[--11~------------12/11----11----------------------------------------------------------]
D[--11~------------12/11----11----------------------------------------------------------]
A[---9~------------10/-9-----9----------------------------------------------------------]
E[------------------------0-------------------------------------------------------------]


CHORUS


e[--------------------------------------------------------------------------------------]
B[--------------------------------------------------------------------------------------]
G[--------------------------------------------------------------------------------------]
D[--7-7-7--7-7-7-----4-4-4-5~---3-------------------------------------------------------]
A[--7-7-7--7-7-7-----4-4-4-5~---3-------------------------------------------------------]
E[--5-5-5--5-5-5-----2-2-2-3~---1-------------------------------------------------------]


BRIDGE


e[--------8-8-------8-8-8-8-------------------------------------------------------------]
B[--------------------------------------------------------------------------------------]
G[--------------------------------------------------------------------------------------]
D[------------------------------------------------------6~--7/8-------------------------]
A[------------------------------------------------------6~--7/8-------------------------]
E[--7-7--------7-7--------------------------------------4~--5/6-------------------------]

Chords List

Chord: Freak on a Leash - Korn - tab, song lyric, sheet, guitar, ukulele
Maybe you like