Chord/Tab song: Fighting - Yellowcard

Chord,Tablature, lyric, sheet, guitar, ukulele song: Fighting - Yellowcard - ( Paper Walls 2007 Capitol Records Submitted by: paramore_f...)

--
Paper Walls
2007 Capitol Records
Submitted by: paramore_fans@yahoo.com

Key: G

Chords used:
G - 320033
D - xx0232
Em - 022000
C - x32010
Am - x02210

Intro:

Guitar: C--D-Em-G (x3)

Violin: will enter at 3rd time of guitar


e|-10-----10-----10-----10-----10-|-7-----7-----7------------7-|
B|----8-8----8-8-----8------8-----|---8-8---8-8----8--10--8----|
G|--------------------------------|----------------------------|
D|--------------------------------|----------------------------|
A|--------------------------------|----------------------------|
E|--------------------------------|----------------------------|

x3

Verse 1:
[Em]Said I'd moved on and I'd leave it alone
But be[G]fore I walk out there is [D]something
that I need you to [Em]know
I got lost in a blink of an eye
And I can [C]never get back, no I [Am]never got back
[Em]You were not there when I wanted to say
That you were [G]everything right and it [D]wasn't you but me to [Em]change
Now I got to go it alone But I'll [C]never give up
Am(hold)
no I'll never give up

Chorus:
[C] What am I fighting for
[D] There must be [Em]some[G]thing more
[C] For all these words I sing
[D] Do you feel [Em]any[G]thing

(Repeat intro once)

Verse 2:
I [Em]said I'm ok but I know how to lie
You were [G]all that i had
You were [D]delicate and hard to [Em]find
Got lost in the back of my mind
And I can [C]never get back, no I [Am]never got back
[Em]You were not there when I needed to say
I hit the [G]bottom so fast that my [D]head was spinning 'round for [Em]days
Now I gotta go it alone But I will [C]never give up
no I'll [D]never give up

(Repeat Chorus)

[C] What am I fighting [D]for[Em][G]
[C] What am I fighting [D]for[Em][G]



Bridge: C--C--Em-G-C-G-Em-G-C-D-Em-G-C-G-Em-G-C-D


Never give up on this (x4)

[C]Said I'm ok but I know how to lie
I will never give up, no I'll never give up

(Repeat Chorus)

[C] What am I fighting f[D]or (No I'm never gonna [Em]give up, [G]give up)
[C] What am I fighting f[D]or (No I'm never gonna [Em]give up, [G]give up)

Outro:
[C]Said that I'd fight for the one that I found
I'm [D]gonna stay here while I [Em]wait for you to [G]come a[C]round
I'd fight you're apart of me now
And I will [D]never give up, no I'll [Em]never give [G]up

Guitar:
[C--D-Em-G]

Violin:


e|-10-----10-----10-----10-----10-|
B|----8-8----8-8-----8------8-----|
G|--------------------------------|
D|--------------------------------|
A|--------------------------------|
E|--------------------------------|

x2

Chords List

Chord: Fighting - Yellowcard - tab, song lyric, sheet, guitar, ukulele
Maybe you like