Chord/Tab song: Every Night - Paul McCartney

Chord,Tablature, lyric, sheet, guitar, ukulele song: Every Night - Paul McCartney - ( G#: 466444 Gm: 355333 F#m7: 242322 F#m: 244222 F#: 244322...)

--
G#: 466444
Gm: 355333
F#m7: 242322
F#m: 244222
F#: 244322

[E] Every night I just want to go out,
get out of my [D]head.
[E] Everyday I want not to get up,
get out of my [D]place.

[A] Every [F#m]night I want to [Bm]play out
[F#] [A] [G#] [Gm] [F#m] [E]

and every day I want to do-o-- o-- o-- o.

[E] But tonight I just want to stay in
and be with [F#m7]you, [B7] and be with you.[E]



--------/4-4-4-4-4-4-4-4-----------/4-4-4-4-4-4-4-4---|
--------/3-3-3-3-3-3-3-3-----------/3-3-3-3-3-3-3-3---|
--------/4-4-4-4-4-4-4-4-----------/4-4-4-4-4-4-4-4---|
------------------------------------------------------|
------------------------------------------------------|
----0--------------------------0----------------------|


Chorus:
[E]Oooooooo [A]ooo oo [E]ooo ooo [B7]oohh oh
[E]Oooooooo [A]ooo oo [E]ooo ooo [B7]oohh oh

Every day I lean on a lamppost,
I'm wasting my time.
Every night I lay on a pillow
Resting my mind.

Every morning brings a new day.
Every night that day is through.
But tonight I just want to stay in
and be with you, and be with you.

Ending:


-----/4-4-4-4-4-4-4-4-----/4-4-4-4-3-2-0--0--|
-----/3-3-3-3-3-3-3-3-----/3-3-3-3-2-1-0--0--|
-----/4-4-4-4-4-4-4-4-----/4-4-4-4-3-2-0--1--|
------------------------------------------2--|
------------------------------------------2--|
--0-------------------0-------------------0--|

Chords List

Chord: Every Night - Paul McCartney - tab, song lyric, sheet, guitar, ukulele
Maybe you like