Chord/Tab song: Every Day Is a Struggle - Senses Fail

Chord,Tablature, lyric, sheet, guitar, ukulele song: Every Day Is a Struggle - Senses Fail - ( Hey everyone! Before I start, I again recommend that y...)

3 months ago26 Senses Fail
--

---------------"Everyday Is A Struggle" - Senses Fail-----------------------


Hey everyone!
Before I start, I again recommend that you listen to the song while you learn it to make
you get the rhythms correct.
Here's the tab, PLEASE RATE! Enjoy!

Email:Ibanez061@aol.com

[INTRO/VERSE I] ()


e|-------------------------------------------------------------------------|
B|-------------------------------------------------------------------------|
G|---7777/9----------10-10-10-10\9-----------------------------------------|
D|-7-xxxx-x--------7--x--x--x--x-x-----3-33-333p0h2-2/555------------------|
A|-7-5555/7--------7--8--8--8--8\7-----3-33-333p0h2-2/555------------------|
D|-7---------------7-------------------3-33-333p0h2-2/555------------------|
e|-------------------------------------------------------------------------|
B|-------------------------------------------------------------------------|
G|---7777/9----------10-10-10-10\9-----------------------------------------|
D|-7-xxxx-x--------7--x--x--x--x-x-----3-33-333/10-10-00-55----------------|
A|-7-5555/7--------7--8--8--8--8\7-----3-33-333/10-10-00-55----------------|
D|-7---------------7-------------------3-33-333/10-10-00-55----------------|

P.M. ..

[PRE-CHORUS]


e|-------------------------------------------------------------------------|
B|-------------------------------------------------------------------------|
G|------5-----5-----5-----------5-----5-----5------------------------------|
D|-0--0-0--00-0--00-0--0-2--3-3-3--33-3--33-3--3-2-------------------------|
A|-0--0----00----00----0-2--3-3----33----33----3-2-------------------------|
D|-0--0----00----00----0-2--3-3----33----33----3-2-------------------------|
e|-------------------------------------------------------------------------|
B|-------------------------------------------------------------------------|
G|------5-----5-----5------------------------------------------------------|
D|-0--0-0--00-0--00-0--0-2--3--3-3--5~-------------------------------------|
A|-0--0----00----00----0-2--3--3-3--5~-------------------------------------|
D|-0--0----00----00----0-2--3--3-3--5~-------------------------------------|


[CHORUS]


e|-------------------------------------------------------------------------|
B|-------------------------------------------------------------------------|
G|-------------------------------------------------------------------------|
D|-7-77-777-777-7777-77-777-77-00-22--3-33-333-333-333---------------------|
A|-7-77-777-777-7777-77-777-77-00-22--3-33-333-333-333---------------------|
D|-7-77-777-777-7777-77-777-77-00-22--3-33-333-333-333---------------------|

PM ..



e|-------------------------------------------------------------------------|
B|-------------------------------------------------------------------------|
G|-5-555-5/7--4-444-4/5----------------------------------------------------|
D|-x-xxx-x/x--x-xxx-x/x----7-77-777-777-7777-77-777-77-00-22---------------|
A|-3-333-3/5--2-222-2/3----7-77-777-777-7777-77-777-77-00-22---------------|
E|-------------------------7-77-777-777-7777-77-777-77-00-22---------------|

PM ..



e|-------------------------------------------------------------------------|
B|-------------------------------------------------------------------------|
G|-------------------------------------------------------------------------|
D|-3-33-333-333-333/5-55-555\22--55----------------------------------------|
A|-3-33-333-333-333/5-55-555\22--55----------------------------------------|
D|-3-33-333-333-333/5-55-555\22--55----------------------------------------|


[VERSE II] ()


e|-------------------------------------------------------------------------|
B|-------------------------------------------------------------------------|
G|---7777/9----------10-10-10-10\9-----------------------------------------|
D|-7-xxxx-x--------7--x--x--x--x-x-----3-33-333p0h2-2/555------------------|
A|-7-5555/7--------7--8--8--8--8\7-----3-33-333p0h2-2/555------------------|
D|-7---------------7-------------------3-33-333p0h2-2/555------------------|
e|-------------------------------------------------------------------------|
B|-------------------------------------------------------------------------|
G|---7777/9----------10-10-10-10\9-----------------------------------------|
D|-7-xxxx-x--------7--x--x--x--x-x-----3-33-333/10-10-00-55----------------|
A|-7-5555/7--------7--8--8--8--8\7-----3-33-333/10-10-00-55----------------|
D|-7---------------7-------------------3-33-333/10-10-00-55----------------|

PM ..

[PRE-CHORUS]


e|-------------------------------------------------------------------------|
B|-------------------------------------------------------------------------|
G|------5-----5-----5-----------5-----5-----5------------------------------|
D|-0--0-0--00-0--00-0--0-2--3-3-3--33-3--33-3--3-2-------------------------|
A|-0--0----00----00----0-2--3-3----33----33----3-2-------------------------|
D|-0--0----00----00----0-2--3-3----33----33----3-2-------------------------|
e|-------------------------------------------------------------------------|
B|-------------------------------------------------------------------------|
G|------5-----5-----5------------------------------------------------------|
D|-0--0-0--00-0--00-0--0-2--3--3-3--5~~~-----------------------------------|
A|-0--0----00----00----0-2--3--3-3--5~~~-----------------------------------|
D|-0--0----00----00----0-2--3--3-3--5~~~-----------------------------------|


[CHORUS]


e|-------------------------------------------------------------------------|
B|-------------------------------------------------------------------------|
G|-------------------------------------------------------------------------|
D|-7-77-777-777-7777-77-777-77-00-22--3-33-333-333-333---------------------|
A|-7-77-777-777-7777-77-777-77-00-22--3-33-333-333-333---------------------|
D|-7-77-777-777-7777-77-777-77-00-22--3-33-333-333-333---------------------|

PM ..



e|-------------------------------------------------------------------------|
B|-------------------------------------------------------------------------|
G|-5-555-5/7--4-444-4/5----------------------------------------------------|
D|-x-xxx-x/x--x-xxx-x/x----7-77-777-777-7777-77-777-77-00-22---------------|
A|-3-333-3/5--2-222-2/3----7-77-777-777-7777-77-777-77-00-22---------------|
E|-------------------------7-77-777-777-7777-77-777-77-00-22---------------|

PM ..



e|-------------------------------------------------------------------------|
B|-------------------------------------------------------------------------|
G|-------------------------------------------------------------------------|
D|-3-33-333-333-333/5-55-555\22--55----------------------------------------|
A|-3-33-333-333-333/5-55-555\22--55----------------------------------------|
D|-3-33-333-333-333/5-55-555\22--55----------------------------------------|


[BREAK]


e|-------------------------------------------------------------------------|
B|-------------------------------------------------------------------------|
G|-------------------------------------------------------------------------|
D|-3-3~~/5~~-2~~/3~~-------------------------------------------------------|
A|-3-3~~/5~~-2~~/3~~-------------------------------------------------------|
E|-3-3~~/5~~-2~~/3~~-------------------------------------------------------|


(Play RIFF 2x)
[RIFF I](Hold 3rd finger on 10th fret on 4th string)


e|-------------------------------------------------------------------------|
B|-------------------------------------------------------------------------|
G|---12----9------10p9----10p9--9------------------------------------------|
D|-10--1010-101010----1010----10-------------------------------------------|
A|-------------------------------------------------------------------------|
E|-------------------------------------------------------------------------|
e|-------------------------------------------------------------------------|
B|-------------------------------------------------------------------------|
G|---12----9------10p9----9-----9------------------------------------------|
D|-10--1010-101010----1010-10-12-------------------------------------------|
A|-------------------------------------------------------------------------|
E|-------------------------------------------------------------------------|


[BREAKDOWN] (Play 2x)


e|-------------------------------------------------------------------------|
B|-------------------------------------------------------------------------|
G|---7777/9----------10-10-10-10\9-----------------------------------------|
D|-7-xxxx-x--------7--x--x--x--x-x-----------------------------------------|
A|-7-5555/7--------7--8--8--8--8\7-----------------------------------------|
D|-7---------------7-------------------------------------------------------|
e|-------------------------------------------------------------------------|
B|-------------------------------------------------------------------------|
G|---12-12-12-12/14-------17-17-17-17\16-----------------------------------|
D|-3--x--x--x--x/-x-----5--x--x--x--x\-x-----------------------------------|
A|-3-10-10-10-10/12-----5-15-15-15-15\14-----------------------------------|
E|-3--------------------5--------------------------------------------------|


[RIFF II/SOLO]


e|-------------------------------------------------------------------------|
B|-------------------------------------------------------------------------|
G|----12-9~-10b12r10-9b10r9----------12-9~-10b12r10-9b10r9-----------------|
D|-10-----------------------12----10-----------------------12--------------|
A|-------------------------------------------------------------------------|
E|-------------------------------------------------------------------------|
e|-------------------------------------------------------------------------|
B|-------------------------------------------------------------------------|
G|----12-9~-10b12r10-9b10r9----------12-9~-10~-7~-9-9-9-9-9-9-10-9\--------|
D|-10-----------------------12----10---------------------------------------|
A|-------------------------------------------------------------------------|
E|-------------------------------------------------------------------------|


[CHORUS]


e|-------------------------------------------------------------------------|
B|-------------------------------------------------------------------------|
G|------------------------5-555-5/7--4-444-4/5-----------------------------|
D|-222--3-33-333-333-333--x-xxx-x/x--x-xxx-x/x-----------------------------|
A|-222--3-33-333-333-333--3-333-3/5--2-222-2/3-----------------------------|
D|-222--3-33-333-333-333---------------------------------------------------|
e|-------------------------------------------------------------------------|
B|-------------------------------------------------------------------------|
G|-------------------------------------------5------5----------------------|
D|-7-77-777-777-7777-77-777-77-00-222----3-3-x--3-3-x----------------------|
A|-7-77-777-777-7777-77-777-77-00-222----3-3-3--3-3-3----------------------|
E|-7-77-777-777-7777-77-777-77-00-222----3-3----3-3------------------------|

PM ..



e|-------------------------------------------------------------------------|
B|-------------------------------------------------------------------------|
G|-----5~------5~------5~--------------------------------------------------|
D|-3-3-x~--3-3-x~--5-5-x~--5-5-555-----------------------------------------|
A|-3-3-3~--3-3-3~--5-5-3~--5-5-555-----------------------------------------|
D|-3-3-----3-3-----5-5-----5-5-555-----------------------------------------|

PM ...

|--3--|


e|-------------------------------------------------------------------------|
B|-------------------------------------------------------------------------|
G|-----5~------5~------5~--------------------------------------------------|
D|-3-3-x~--3-3-x~--5-5-x~--5-5-5--6~---------------------------------------|
A|-3-3-3~--3-3-3~--5-5-3~--5-5-5--6~---------------------------------------|
D|-3-3-----3-3-----5-5-----5-5-5--6~---------------------------------------|

PM . . .



e|-------------------------------------------------------------------------|
B|-------------------------------------------------------------------------|
G|------555--------------555--------------555------------------------------|
D|-7777-xxx-777777--7777-xxx-77-2222-3333-xxx-33333-5-555555-222-333-------|
A|-7777-333-777777--7777-333-77-2222-3333-333-33333-5-555555-222-333-------|
D|-7777-----777777--7777-----77-2222-3333-----33333-5-555555-222-333-------|

PM .. ..



e|-------------------------------------------------------------------------|
B|-------------------------------------------------------------------------|
G|------555--------------555--------------555------------------------------|
D|-7777-xxx-777777--7777-xxx-77-2222-3333-xxx-33333------------------------|
A|-7777-333-777777--7777-333-77-2222-3333-333-33333------------------------|
D|-7777-----777777--7777-----77-2222-3333-----33333------------------------|

PM



e|-------------------------------------------------------------------------|
B|-------------------------------------------------------------------------|
G|-------------------------------------------------------------------------|
D|-2~--33333-55555-77777\--------------------------------------------------|
A|-2~--33333-55555-77777\--------------------------------------------------|
D|-2~--33333-55555-77777\--------------------------------------------------|

PM .... .... ....

The End.
E-mail me at Ibanez061@aol.com for Q's or comments

| / slide up
| \ slide down
| h hammer-on
| p pull-off
| ~ vibrato
| + harmonic
| x Mute note
| . Palm Mute
| b bend
| r release bend

Chords List

Chord: Every Day Is a Struggle - Senses Fail - tab, song lyric, sheet, guitar, ukulele
Maybe you like