Chord/Tab song: Everlasting God - Brenton Brown,Jeremy Camp,Lincoln Brewster

Chord,Tablature, lyric, sheet, guitar, ukulele song: Everlasting God - Brenton Brown,Jeremy Camp,Lincoln Brewster - ( Everlasting God - Brenton Brown Standard tuning/Capo 3rd...)

--
Everlasting God - Brenton Brown

Standard tuning/Capo 3rd fret

Intro/Verse:
[G/B]

e---------------------------------------------------3----------|
B---------------------------------------------------3----------|
G---------------------------------------------------0----------|
D--0-0-0--------------------------------------------0----------|
A--------0-2-3-3-2-0---0-2-3-3-2-0---0-2-3-3-2-0----2----------|
E--------------------3-------------3-------------3--3----------|
Strength-will-rise-as-we-wait-u-pon-the-Lord
As-we-wait-u-pon-the-Lord
As-we-wait-u-pon-the-Lord G/B

(repeat)

Pre-Chorus:



e--3-----3-----3?----3-----3-----3-----3-----------------------|
B--3-----3-----3-----3-----3-----3-----3-----------------------|
G--0-----0-----0-----0-----0-----0-----0-----------------------|
D--0-----2-----0-----2-----0-----2-----0-----------------------|
A?-2-----3-----2-----3-----x-----x-----x-----------------------|
E--x-----x-----x-----x-----x-----x-----x-----------------------|


Our God you reign for- ev- er
Our Hope Our strong de- liv- rer

Chorus:

[G/B] [C2] [Em7] [Am7] [D] [C2]

e--3-----3-----3?----0-----2-----3-----------------------------|
B--3-----3-----3-----1-----3-----3-----------------------------|
G--0-----0-----0-----0-----2-----0-----------------------------|
D--0-----2-----2-----2-----0-----2-----------------------------|
A?-2-----3-----2-----------------3-----------------------------|
E--3-----------------------------------------------------------|


[G/B]You are the everlasting God[C2]
the everlasting [Em7]God
You do not faint You [Am7]won't g[D]row [C2]weary
and [G]You're the defender of the weak[C2]
You comfort those in need[Em7]
You lift us up on [Am7]wings [D]like [C2]eagles

words correspond with each individual note

email doublestickktape@gmail.com if you have any questions/comments
this is only my 2nd time doing a tab so sorry if it's confusing, haha

Chords List

Chord: Everlasting God - Brenton Brown,Jeremy Camp,Lincoln Brewster - tab, song lyric, sheet, guitar, ukulele
Maybe you like