Chord/Tab song: Emerald - Skyclad

Chord,Tablature, lyric, sheet, guitar, ukulele song: Emerald - Skyclad - ( Band: Skyclad Album: Tracks From The Wilderness Song: Eme...)

3 months ago25 Other Songs Skyclad
--
Band: Skyclad
Album: Tracks From The Wilderness
Song: Emerald(Thin Lizzy cover)

Copyright (c) (Noise Records) (1992)
Version 1.0 - (21/10/05)

Transcribed By: Steve
Email: stephen.elvidge1@ntlworld.com

. - palm mute / - slide up to
\ - slide down to ~ - vibrato
h - hammer on b - Bend
p - pull off Suffixes for bend
t - tap f - full bend h - half bend
ph - pinched harmonic q - quarter bend t - tap bend
- see comment ^ - Hold bend r - release bend
x - Stuccatto ~ - vibrato bend s - slow bend
, - slight palm mute () - ghost note, sustained note
" - tremolo note - Trill

Tunning Eb Ab Db Gb Bb Eb

Intro

Drums on own

[PM] [PM]


E-------------------------------------------------------------------|
B-------------------------------------------------------------------|
G-------------------------------------------------------------------|
D-5\4-2----(2)-------5----(5)----5\4-2----(2)----5------------------|
A-3\2-0----(0)----5--3----(3)----3\2-0----(0)----3--5----(5)--0-----|
E-----------------3---------------------------------3----(3)--------|


[-PM-] [-PM-]


E-----------------------------------------------------------------|
B-----------------------------------------------------------------|
G-----------------------------------------------------------------|
D-5\4-2----(2)-------5----(5)----5\4-2----(2)------9-9-------9-9--|
A-3\2-0----(0)----5--3----(3)--0-3\2-0----(0)----5-7-7-------7-7--|
E-----------------3------------------------------3-----0-0-0------|


Verse

Guitar 1


E[----------------------------------------------------------|
B[----------------------------------------------------------|
G[----------------------------------------------------------|
D[-----2--------2-5--5-------5-----2--2-2-2-2-5-------------|
A[-3p2-0--0-0-0-0-5--3-3-3-3-3-3p2-0--0-0-0-0-3--5--------5-|
E[----------------3------------------------------3--3-3-3-3-|

[Guitar 2


E[----------------------------------------------------------|
B[----------------------------------------------------------|
G[----------------------------------------------------------|
D[-5\4-2--------2-5--5-------5-5\4-2--2-2-2-2-5-------------|
A[-3\2-0--0-0-0-0-5--3-3-3-3-3-3\2-0--0-0-0-0-3--5--------5-|
E[----------------3------------------------------3--3-3-3-3-|

[Violin arranged for guitar


E[----------------------------------------------------------|
B[----------------------------------------------------------|
G[-5-4-2---(2)----0--5---(5)---5-4-2---(2)----5--0----(0)---|
D[----------------------------------------------------------|
A[----------------------------------------------------------|
E[----------------------------------------------------------|


Guitar 1


E[--------------------------------------------------------------------------|
B[--------------------------------------------------------------------------|
G[----------------------------------------------99-------99-------99999999\-|
D[----2--------2-5--5-------5-----2--2-2-2-2----99-------99-------99999999\-|
A[3p2-0--0-0-0-0-5--3-3-3-3-3-3p2-0--0-0-0-0-5--77-------77-------77777777\-|
E[---------------3---------------------------3-----0-0-0----0-0-0-----------|

[Guitar 2


E[--------------------------------------------------------------------------|
B[--------------------------------------------------------------------------|
G[----------------------------------------------99-------99-------99999999\-|
D[5\4-2--------2-5--5-------5-5\4-2--2-2-2-2----99-------99-------99999999\-|
A[3\2-0--0-0-0-0-5--3-3-3-3-3-3\2-0--0-0-0-0-5--77-------77-------77777777\-|
E[---------------3---------------------------3-----0-0-0----0-0-0-----------|

[Violin arranged for guitar


E[--------------------------------------------------------------------------|
B[----------------------------------------------5--------(5)----------------|
G[5-4-2---(2)----0--5---(5)---5-4-2---(2)----0------------------------------|
D[--------------------------------------------------------------------------|
A[--------------------------------------------------------------------------|
E[--------------------------------------------------------------------------|


Folk Melody

Guitars 1 & 2
~~~~~


E[--------------------------------------------------|
B[--------------------------------------------------|
G[--------------------------------------------------|
D[-7-7-7-7-7-7-7-7-7-7p5----------------------------|
A[-----------------------7-5\3----------------------|
E[-----------------------------5--5-5-5-5-5-5-3-----|

[Violin


E[-5-5-5-5-5-5-5-5-5-5p3----------------------------|
B[-----------------------5-3\1----------------------|
G[-----------------------------2--2-2-2-2-2-2-------|
D[--------------------------------------------5-----|
A[--------------------------------------------------|
E[--------------------------------------------------|


Guitars 1 & 2
~~~~~


E[--------------------------------------------------|
B[--------------------------------------------------|
G[--------------------------------------------------|
D[-------------------------5-5-5-5-5---5-7----------|
A[-----------3-3-3-3-3/5/7-----------7--------------|
E[-3-3-3-3/5----------------------------------------|

[Violin


E[-------------------------3-3-3-3-3---3-5----------|
B[-----------1-1-1-1-1/3/5-----------5--------------|
G[---------2----------------------------------------|
D[-5-5-5-5------------------------------------------|
A[--------------------------------------------------|
E[--------------------------------------------------|


Guitars 1 & 2
~~~~~~~


E[--------------------------------------------------|
B[--------------------------------------------------|
G[-5-5-5-5-5-5-5-5----------------------------------|
D[-----------------7-5-7-5--------------------------|
A[-------------------------7-5-7p5\3-5p3------------|
E[---------------------------------------3----------|

[Violin


E[-8-8-8-8-8-8-8-8-5---5----------------------------|
B[-------------------8---7-8-3-5-3\1-3p1------------|
G[---------------------------------------0----------|
D[--------------------------------------------------|
A[--------------------------------------------------|
E[--------------------------------------------------|


Guitars 1 & 2
~~~~~


E[--------------------------------------------------|
B[--------------------------------------------------|
G[--------------------------------------------------|
D[-------------------------5-5-5-5-5---5-7----------|
A[-----------3-3-3-3-3/5/7-----------7--------------|
E[-3-3-3-3/5----------------------------------------|

[Violin


E[-------------------------3-3-3-3-3---3-5----------|
B[-----------1-1-1-1-1/3/5-----------5--------------|
G[---------2----------------------------------------|
D[-5-5-5-5------------------------------------------|
A[--------------------------------------------------|
E[--------------------------------------------------|


Rpt Verse and Folk Melody

Guitar 1


[-----PM-----]ph~~ [-----PM--------------|
E[-------------------------------------------------|
B[-------------------------------------------------|
G[-------------------------------------------------|
D[-2-2---------------7---2-2---------------5/7-----|
A[-0-0-0-0-0-0-0-0-0-----0-0-0-0-0-0-0-0-0-3/5-----|
E[-------------------------------------------------|

[Additional guitar ~~~~ ~~


E[-----------------------------------------8/10--|
B[-------------------10--------------------------|
G[-----------------------------------------------|
D[-----------------------------------------------|
A[-----------------------------------------------|
E[-----------------------------------------------|


Both Guitars


[-----PM-----]ph~~ [-----PM--------------|
E-------------------------------------------------|
B-------------------------------------------------|
G-------------------------------------------------|
D-2-2---------------7---2-2---------------5/7-----|
A-0-0-0-0-0-0-0-0-0-----0-0-0-0-0-0-0-0-0-3/5-----|
E-------------------------------------------------| Rpt 2 X
[-----PM-----]ph~~ [-----PM---------------------------------|
E--------------------------------------------------------------------|
B--------------------------------------------------------------------|
G--------------------------------------------------------------------|
D-2-2---------------7---2-2---------------9----------(9)-------------|
A-0-0-0-0-0-0-0-0-0-----0-0-0-0-0-0-0-0-0-7----------(7)-------------|
E--------------------------------------------------------------------|


Violin solo



E-17-17\15--12----12---------------------------15/17--|
B--------------15----14-----------13-15-13--13--------|
G------------------------14p12-14---------------------|
D-----------------------------------------------------|
A-----------------------------------------------------|
E-----------------------------------------------------|

h h


E-20p17-------17----17----------------------------------------|
B-------20-20----20----20-17-17-----------13-15p13-15p13--15--|
G--------------------------------14-12-14---------------------|
D-------------------------------------------------------------|
A-------------------------------------------------------------|
E-------------------------------------------------------------|


Interlude

Guitar 1
~~~ ~~~


E[-----------------------------------------------|
B[---0-1p0---0--------------0-1p0---0-----5------|
G[-2-------2---2-0-2p0----2-------2---2-0--------|
D[---------------------2-------------------------|
A[-----------------------------------------------|
E[-----------------------------------------------|

[ Guitar 2
[ ~~~ ~~~


E[-----------------------------------------------|
B[-----5----------------------5-----------7------|
G[-5-7---7p5-7-5-4-5\4----5-7---7p5-7-5\4--------|
D[---------------------7-------------------------|
A[-----------------------------------------------|
E[-----------------------------------------------|

[Violin ~~~ ~~~~


E[----------------------------------------12-----|
B[-101213121012108-108----101213121012108--------|
G[---------------------9-------------------------|
D[-----------------------------------------------|
A[-----------------------------------------------|
E[-----------------------------------------------|


Guitar 1
~~~


E[-----------------------------------------------|
B[-5-6-8p6p5-6p5\3-5p3\1-3p1p0-1p0---0-----------|
G[---------------------------------2---2p0-2-----|
D[-----------------------------------------------|
A[-----------------------------------------------|
E[-----------------------------------------------|

[Guitar 2
[ ~~~~


E[-----7-----------------------------------------|
B[-8-10-10-8-108\6-8p6\5-6p5\3-5p3\1-3p1p0-1-----|
G[-----------------------------------------------|
D[-----------------------------------------------|
A[-----------------------------------------------|
E[-----------------------------------------------|

[Violin ~~~


E[-121315131213121012108-108\7-8p7---7-----------|
B[---------------------------------10-10-8-10----|
G[-----------------------------------------------|
D[-----------------------------------------------|
A[-----------------------------------------------|
E[-----------------------------------------------|


Backing for guitar solo



[--PM-] [--PM-] [----------------|PM-]
E-----------------------------------------|
B-----------------------------------------|
G-2-2-------2-2-------2-2-----------------|
D-2-2-------2-2-------2-2-------5-(5)-----|
A-0-0-0-0-0-0-0-0-0-0-0-0-0-0-0-5-(5)-----|
E-------------------------------3-(3)-----|
[--PM-] [--PM-] [----------------|PM-]
E-----------------------------------------|
B-----------------------------------------|
G-------------------------------2-(2)-----|
D-------------------------------2-(2)-----|
A-5-5-------5-5-------5-5-------0-(0)-----|
E-3-3-3-3-3-3-3-3-3-3-3-3-3-3-3-----------| Rpt these 2 Riffs


Guitar solo
~~~~


E-5555555555555555----------------------|
B-5555555555555555---------7-7----------|
G------------------7brp5---7-7----------|
D------------------------7-----7--------|
A--------------------------------7---\--|
E---------------------------------------|

phphphph h h ~~~~~


E------------------------------------------------|
B-------------------------------------5----------|
G---5-7-7fb-7p5-7p5\4-5-4-4-5p4-4-5-7---5--------|
D-7---------------------------------------5-7----|
A------------------------------------------------|
E------------------------------------------------|

~~~~~


E---------10----10br---15--------------------15sb----|
B---10-13----13-----13----15b-13----13----13---------|
G-9------------------------------14----14------------|
D----------------------------------------------------|
A----------------------------------------------------|
E----------------------------------------------------|

~~~ ~~~~~ ~~~~


E-17-19-20br-20p17----17-17\/17-19-20fb-----17--\--|
B-17---------------20--------------------20--------|
G--------------------------------------------------|
D--------------------------------------------------|
A--------------------------------------------------|
E--------------------------------------------------|


Violin solo
h


E-17-15----------------------------------------------------|
B-------17-15-13-15p13-13-17-15-13\12----------------------|
G-------------------------------------14-14-12-------------|
D----------------------------------------------14-12\10\9--|
A----------------------------------------------------------|
E----------------------------------------------------------|
E-------------------------------------------------|
B----------10-8-10/12-11-12-15/17/18-17-18-17-18--|
G------7-9----------------------------------------|
D-7-10--------------------------------------------|
A-------------------------------------------------|
E-------------------------------------------------|
E-20\17-15-12-15-12--------------12-------------|
B-------------------15p13p12--13----15-13-------|
G-----------------------------------------14\12-|
D-----------------------------------------------|
A-----------------------------------------------|
E-----------------------------------------------|

h


E-19-20-19-20p19-22-19-20-22-24b25-24b25-24-24--|
B-----------------------------------------------|
G-----------------------------------------------|
D-----------------------------------------------|
A-----------------------------------------------|
E-----------------------------------------------|


Guitar solo

~~~~~~~~~~~~~~~~~~~~~~~~~~~~~~~~~~~~~ ~~~


E---------------------------------------------15----------------------|
B----------/5-----5/10-----10-10--13sb-12-13--------12-12-------------|
G-2-----2-2----------------------------12--------12----12--------14---|
D----------------------------------------------------------14-12------|
A---------------------------------------------------------------------|
E---------------------------------------------------------------------|

~~~~


E-15b15rp12-15b15rp12-15b15rp12-15b15rp12-20-19-17------------------|
B--------------------------------------------------20-19-17---------|
G-----------------------------------------------------------19-17---|
D-------------------------------------------------------------------|
A-------------------------------------------------------------------|
E-------------------------------------------------------------------|

~~~~


E-19-17----------------------------------------------------|
B-------20-20b--r20o17---------------17--------------------|
G----------------------19brp17-19-17----19-17--------------|
D---------------------------------------------19-17--------|
A---------------------------------------------------19-17\-|
E----------------------------------------------------------|


Rpt Folk Melody with additional lead guitar fills below

h


E-20fbrp17-20------|
B------------20----|
G------------------|
D------------------|
A------------------|
E------------------|

h h ~~~~~~~~~~~~~


E----------20-17-15-17p15---------------|
B-15-17p15----------------15b-----------|
G---------------------------------------|
D---------------------------------------|
A---------------------------------------|
E---------------------------------------|

~~~~~~~~~~~


E----------------------------|
B-15---------15brp13--15-13--|
G----------------------------|
D----------------------------|
A----------------------------|
E----------------------------|


Guitar 1


E[-------------------------------------------------------------------|
B[-------------------------------------------------------------------|
G[-2------------------------(2)--------------------------------------|
D[-2------------------------(2)--------------------------------------|
A[-0------------------------(0)--------------------------------------|
E[-------------------------------------------------------------------|

[Guitar 2
[ ~~~~~~~~~~~~~~~~~~~~~~~~~~~ [---PM--]~~~~


E[-------------------------------------------------------------------|
B[-------------------------------------------------------------------|
G[-14------------(14)----------\-----5-----0-------------------------|
D[-------------------------------5-7---7-2---0-3/5-\3p0------(0)-----|
A[-------------------------------------------------------------------|
E[-------------------------------------------------------------------|


END

Chords List

Chord: Emerald - Skyclad - tab, song lyric, sheet, guitar, ukulele
Maybe you like