Chord/Tab song: Dry County - Bon Jovi

Chord,Tablature, lyric, sheet, guitar, ukulele song: Dry County - Bon Jovi - ( INTRO E------------------------------------------------...)

--
INTRO


E----------------------------------------------------------------------------------
B---5--5b/r-----5----------------------5--5b/r---6b/r-5--8bB-8-|-------------------
G-7----------7-----5--5--5/7\5-7-----7---------7---------------|-------------------
D----------------------------------7---------------------------|---------------3---
A--------------------------------------------------------------|---------3--5----5-
E--------------------------------------------------------------|-------5-----------


Verse:
[Dm]Across the [C]border they turn
[Am]Water into [Bb]wine
[Dm]Some say it's the [C]devil's blood
They're [G]squeezing from the vine
[Dm]Some say it's a [C]saviour
In these [Am]hard and desperate [Bb]times
For [Dm]me it helps me [C]to forget
That [G]we're just born... to [Dm]die[C][Am][Bb]



E----------------------------------------------------------------------------------
B---5--5b/r-----5----------------------5--5b/r---6b/r-5--8bB-8-|-------------------
G-7----------7-----5--5--5/7\5-7-----7---------7---------------|-------------------
D----------------------------------7---------------------------|-------------------
A--------------------------------------------------------------|---------3--5------
E--------------------------------------------------------------|-------5-----------


[Dm]I came here li[C]ke so many did
To [Am]find the better [Bb]life
To [Dm]find my piece of [C]easy street
To [G]finally be alive
I knew [Dm]nothing good comes [C]easy
All [Am]good things take some [G]time
I [Dm]made my bed I'll [C]lie in it
To [G]die in it's the [Dm]crime

Bridge:
[F]You can't help but prosper
Where the [Gm]streets are paved with gold
they say the [C]oil wells ran depper here
Than [Bb]anybody's known
Now I [F]packed up on my wife and kid
And le[Gm]ft them back at home
Now there's [C]nothing in this paydirt
The [Bb]ghosts are all I know

N[Dm]ow the oil's gone
And [Dm/C]the money's gone
All [Dm/G]the jobs are gone
still we're [Bb]hangin' on [C]down in

Chorus:
[F]Dry county
They're [C]swimming in the sand
Praying [Bb]for some holy water
to [Gm]wash the sins from [Bb]off our hands in
[F]Dry county
The [C]promise has run dry
[Bb]Where nobody cries
And [Bb]no one's getting out of here [Dm]aliv[C]e [Am] [Bb] not this time



E----------------------------------------------------------------------------------
B---5--5b/r-----5----------------------5--5b/r---6b/r-5--8bB-8-|-------------------
G-7----------7-----5--5--5/7\5-7-----7---------7---------------|-------------------
D----------------------------------7---------------------------|-------------------
A--------------------------------------------------------------|---------3--5------
E--------------------------------------------------------------|-------5-----------


In th[Dm]e blessed name o[C]f Jesus
I [Am]heard a preacher [Bb]say
That [Dm]we are all God's [C]children
And t[G]hat he'd be back, [Dm]back someday
And I [Dm]hoped that he knew [C]something
As he [Am]drank his cup of [Bb]wine
Didn't [Dm]have too good a [C]feeling
As I [G]head out to the [Dm]night

I [F]cursed the sky to open
I [Gm]begged the clouds for rain
I [C]prayed to God for water
For this [Bb]burning in my viens
It was [F]like my soul's on fire
And I [Gm]had to watch the flames
All my [C]dreams went up in ashes
And my [Bb]future blew away

Now [Dm]the oil's gone
And [Dm]the money's gone
All [Dm]the jobs are gone
Still we [Bb]carry on [C]down in

[F]Dry county
They're [C]swimming in the sand
Praying [Bb]for some holy water
to [Gm]wash the sins from [Bb]off our hands in
[F]Dry county
The [C]promise has run dry
[Bb]Where nobody cries
[Bb]And no one's getting out of here [F]alive

1st Solo: -



E-------------------------------------------------------------
B----------------------------13-------------13b15r10-------13-
G------10--------10?10h12b14----12b14r10h12----------12h14----
D-10h12--12P10h12?12------------------------------------------
A-------------------------------------------------------------
E-------------------------------------------------------------
E-------------------------------------------------------------
B-13b15r10-----13--------10-13-15b17-17p15p13-15-18/13-13p15--
G---------12h14--10-12-13-------------------------------------
D-------------------------------------------------------------
A-------------------------------------------------------------
E-------------------------------------------------------------
E------------13-15/17/15-13-13h15p13--------------------------
B-13h15-13-15-----------------------17-17-13-15-17b19r17-13-15
G-------------------------------------------------------------
D-------------------------------------------------------------
A-------------------------------------------------------------
E-------------------------------------------------------------
E-13-15/17-17-17-13h15-------
B---------------------13h15--
G----------------------------
D----------------------------
A----------------------------
E----------------------------


bit befor 2nd solo


E------13---12---13---12--12---------12---10---12---10---10---10---
B----15-14----15---15---15--15-----13--13---13---13---13---13---13-
G--14-----15----14---14----------12-----12---12----12---12---------
D-0-----------------------------0----------------------------------
A------------------------------------------------------------------
E------------------------------------------------------------------


2nd solo


E------------------------------------------------------------
B-13p12p10--13p12p10--13p12p10--13p12p10--13p12p10--13p12p10-
G------------------------------------------------------------
D------------------------------------------------------------
A------------------------------------------------------------
E------------------------------------------------------------
E-------------------------------------------------------------
B-13p12p10?13p12p10-13b15r13-10-------------------------------
G-------------------------------12b14r10-12-10----------------
D---------------------------------------------12? x3----------
A-------------------------------------------------------------
E-------------------------------------------------------------
E-----------------------------15-13-12--------------15-13-12p13
B--------------------------13---------15-15p12-15p12-----------
G---10-12b14r12p10?10-12b14?12---------------------------------
D-12--------------12-------------------------------------------
A--------------------------------------------------------------
E--------------------------------------------------------------
Eh13p12---13b15-15-13p12-----12h13--} x3?17p15p13--------13--------
B------15---------------12-15-------}------------15-13h15?15p13h15-
G------------------------------------------------------------------
D------------------------------------------------------------------
A------------------------------------------------------------------
E------------------------------------------------------------------
E-17-17-17-16-16-16-15vv-13h15p13----------------------------------
B-------------------------------17-17b10r17-13-15h17---------------
G----------------------------------------------------14------------
D------------------------------------------------------------------
A-------------------------------------------------------12-12-12-12
E------------------------------------------------------------------
E---------------------------------------------------------15-13-12-
B------------------------------------------------------------------
G---------------------10--------------------------17/19/21---------
D- x3?12---12---12-10--12/14/15/17/19------------------------------
A--------------------------12--------------------------------------
E------------------------------------------------------------------
E---------------------------------------------------------------------
B-15-13---------------------------------------------------------------
G------14-12-14h15p14h12-14h15p14p12h14vvp12-----------10-12b14r12p10-
D---------------------------------------------12-12-12----------------
A---------------------------------------------------------------------
E---------------------------------------------------------------------
E----------------------17-15p13-15h17?18p17p15-18p17p15---------
B------------11-13b15/0\-------------------------------18p17p15-
G------10-12----------------------------------------------------
D-12p10---------------------------------------------------------
A---------------------------------------------------------------
E---------------------------------------------------------------
E--------------------------------15-17-18-20vv-18p17p151818p1717-
B-18p17p15---16p15p13-16p15p13/18--------------------------------
G----------------------------------------------------------------
D----------------------------------------------------------------
A----------------------------------------------------------------
E----------------------------------------------------------------
E----------------------------------------------------------------------
B-18p17p15-18p17p15-15-15vv?10-12-13b15r13b15-13-10-----------------13-
G--------------------------------------------------12-10-12-10-12b14?12
D----------------------------------------------------------------------
A----------------------------------------------------------------------
E----------------------------------------------------------------------

Chords List

Chord: Dry County - Bon Jovi - tab, song lyric, sheet, guitar, ukulele
Maybe you like