Chord/Tab song: Dragon on the Sea - Ayreon

Chord,Tablature, lyric, sheet, guitar, ukulele song: Dragon on the Sea - Ayreon - ( Artist - Ayreon Song - Dragon On The Sea Album - Univer...)

--
Artist - Ayreon

Song - Dragon On The Sea

Album - Universal Migrator Part 0I-The Dream Sequencer




INTRO - Keyboard Bass


Acoustic Guitar
[Em] [Am]

VERSE 1

[Em]Times are [Am]dark now, our empire's gone [Em]astray
Forces from [Am]down south, armada on the [Em]way
So we call our [Am]greatest men to run the [Em]barricade
Shine your light where [Am]shadows fall and wash the night [Em]away



-----------------------------------------------------

CHORUS

[A]Sail on for your queen

Sail into history
You will never be the [E]same
[A]Sail on for country

Into our memory
Time will remember your [C]name
[D]Dragon on the [Em]sea



-----------------------------------------------------

VERSE 2

[Em]Fires burn now in [Am]once our tranquil [Em]bays
Tall ships that [Am]rain down thunderbolts and [Em]flames
Go and raise your [Am]pirate flag, cast the lines [Em]away
Take your fleet where [Am]darkness falls and turn the night to [Em]day



-----------------------------------------------------

CHORUS



-----------------------------------------------------

VERSE 3

C Em 03:58
The sun never sets on the empire won s
C Em [--17\19-17-15-]


But wise men say never say never [--------------]
C Em [-repeat-------]
It slips through our hands just like sand in sun [---when ------]

C D Em [----necessary-]


We thought it would go on forever [--------------]


electric guitar



-----------------------------------------------------

CHORUS

distorted guitar
05:02


[----------]
[----------]
[----------]
[----------]
[-3--5-----]
[--------7-]
-----------------------------------------------------

distorted guitar
play this throughout this last part
05:11


[--------------]
[--------------]
[--------------]
[--------------]
[-7------5-----]
[----5-------0-]


[Em]Dragon ships they [Am]keep on sailing, [D]on to Nova [Em]Albion
[Em]While the waking [Am]world is sleeping, [D]dragon ships are [Em]sailing on

05:51
[s] [s] [s] [s] [s]

[-17\15-17-15-14-15-|-14\15-14-12---14\15-14-15-12---14\15-14-12-10\12-]
[-------------------|--------------------------------------------------]
[-------------------|--------------------------------------------------]
[-------------------|--------------------------------------------------]
[-------------------|--------------------------------------------------]
[-------------------|--------------------------------------------------]


[s] [s] [s] [s]

[-17\19-17-15---17\19-17-19--15---17\19-17-15--14\15-]
[----------------------------------------------------]repeat
[----------------------------------------------------]this
[----------------------------------------------------]bar
[----------------------------------------------------]X2
[----------------------------------------------------]


Repeat and fade........


Nice Easy Tune. Enjoy.............

Chords List

Chord: Dragon on the Sea - Ayreon - tab, song lyric, sheet, guitar, ukulele
Maybe you like