Chord/Tab song: Down We Fall - Drake Bell

Chord,Tablature, lyric, sheet, guitar, ukulele song: Down We Fall - Drake Bell - ( Down We Fall by Drake Bell Album: Telegraph Tabbed by al...)

--
Down We Fall by Drake Bell
Album: Telegraph

Tabbed by alex_72886

I made this using standard tuning, i'm lazy when it comes tuning guitars,
and I always find my own way of playing chords in Standard Tuning

As usual there are slash chords here

This is accurate especially when played correctly


CHORDS USED:

[D#/A#] [Cm] [G] [A#sus] [A#7] [Fm] [Bdim] [G#m6/B] [Bmaj7] [A#/G#] [G#maj7]

e/---x-----3-----3-----6-----1-----1-----1-----1-----2-----x-----4-----|
B/---8-----4-----3-----6-----3-----1-----3-----0-----4-----3-----4-----|
G/---8-----5-----4-----8-----1-----1-----1-----1-----3-----3-----5-----|
D/---8-----5-----5-----8-----3-----3-----3-----x-----4-----3-----5-----|
A/---x-----3-----5-----8-----1-----3-----2-----2-----2-----x-----6-----|
E/---6-----x-----3-----6-----x-----1-----x-----x-----x-----4-----4-----|



[G#7] [D#5] [D#7/C] [G/B] [B5] [C#5]

e/---4-----x----(6)----3-----x-----x-----|
B/---4-----x-----x-----3-----x-----x-----|
G/---5-----8-----6-----0-----4-----6-----|
D/---4-----8-----5-----0-----4-----6-----|
A/---6-----6-----4-----2-----2-----4-----|
E/---4-----x-----x-----x-----x-----x-----|


Note: D#/A# can be played also as D#5


Intro: A#sus

Verse I:

[Cm]You were so c[G]lever
you [Cm]kept it to[G]gether [D#/A#]today
by the [A#7]way
I no [Cm]longer ig[G]nore you
I w[Cm]anted to [G]show you [D#/A#]again
I'm your f[A#7]riend
some[Fm]times we j[Bdim]ust preten[Cm]d[Bmaj7]


Chorus:

And [D#5]all I can s[D#7/C#]ay is you sa[G#7]ved me
[D#5]chased all the [D#7/C#]things that have ma[G#7]de me
[D#5]entertaining t[D#7/C#]houghts are raining d[G#7]own we [G#m6/B]fall

Interlude:

its[A#/G#] all o[G#maj7]k [A#/G#]when I [G#maj7]say you and [D#5]I
[A#/G#]take your[G#maj7] time [A#/G#] I can [G#maj7]wait to see you f[D#5]ly[A#7]


Verse:

You d[Cm]on't have to w[G]onder
I [Cm]finally disc[G]overed to[D#/A#]night
you were r[A#7]ight
this is j[Cm]ust the be[G]ginning
its [Cm]all that I'm tr[G]ying to [D#/A#]say if I ma[A#7]y
you're [Fm]never [Bdim]in my w[Cm]orld[Bmaj7]


Chorus:

And [D#5]all I can s[D#7/C#]ay is you sa[G#7]ved me
[D#5]chased all the [D#7/C#]things that have ma[G#7]de me
[D#5]entertaining t[D#7/C#]houghts are raining d[G#7]own we [G#m6/B]fall

Interlude:

its[A#/G#] all o[G#maj7]k [A#/G#]when I [G#maj7]say you and [D#5]I
[A#/G#]take your[G#maj7] time [A#/G#] I can [G#maj7]wait to see you f[D#5]ly[A#7]

[B5]aaah a[C#5]aah aaa[D#5]aah


Bridge: (Talking)
[Cm] [G] [Cm] [G] [D#] [A#7]
[Fm] [G/B] [Cm] [Bmaj7]

Chorus:

And [D#5]all I can s[D#7/C#]ay is you sa[G#7]ved me
[D#5]chased all the [D#7/C#]things that have ma[G#7]de me

[D#5]entertaining t[D#7/C#]houghts are raining d[G#7]own we fall (x6)

Solo:
D#5 D#7/C# G#7 (x10)

Entertaining thoughts are raining down we fall

Chords List

Chord: Down We Fall - Drake Bell - tab, song lyric, sheet, guitar, ukulele
Maybe you like