Chord/Tab song: Deep And Meaningless - Rooster

Chord,Tablature, lyric, sheet, guitar, ukulele song: Deep And Meaningless - Rooster - ( Tuning: Standard Transcribed by vhhendrixcrazy Rooster i...)

3 months ago23 Other Songs Rooster
--
Tuning: Standard
Transcribed by vhhendrixcrazy

Rooster is an indie-rock band in the U.K. You can check their official site at www.roosterofficial.com

[C]I, I don't know why I mi[G]ss you so much
Yeah [Am]I, I don't know why I st[F]ill feel your touch
[C]You, you left me feeling hi[G]gh and dry
With not[Am]hing, nothing but the que[F]stion why

Yeah y[G]ou, I guess you had another direc[Am]tion[F]
And leaving [Dm]me with nothing but a dead conn[E]ection

Chorus:
If you call me to[C]day
I'll say that I'm fi[G]ne
But I bet you can t[Am]ell by the tone of my voice
It's just a l[F]ie
You knew what you h[C]ad
You still walked aw[D]ay leaving me in this me[F]ss
My love for y[G]ou is deep and meaningles[C]s



|----------------------------|
|-17b18r--------------------|
|---------17-----------------|
|------------17--15s14-------|
|----------------------------|
|----------------------------|


[C]You, you knew what you were do[G]ing to me
And [Am]I, I guess I was t[F]oo blind to see



|----15b17-15-14-13--11-13-13b15rp11----------|
|-13---------------------------------13~------|
|---------------------------------------------|
|---------------------------------------------|
|---------------------------------------------|
|---------------------------------------------|

Well you h[C]it where it hurt and you fooled me so bad
[G]But I'd do it again to relive what we had[Am]
[F]Damn that's sad



|----------------------------|
|-15b17--15--13~\------------|
|----------------------------|
|----------------------------|
|----------------------------|
|----------------------------|


[G]There are many things left to remind [Am]me[F]
Of a l[Dm]ove that I just can't leave beh[E]ind me



|--------15-------------------|
|-15b17-----15b17--15~~-------|
|-----------------------------|
|-----------------------------|
|-----------------------------|
|-----------------------------|


If you call me to[C]day
I'll say that I'm fi[G]ne
But I bet you can t[Am]ell by the tone of my voice
It's just a l[F]ie



|-------13-14-15----------|
|-15b17-----------13~-----|
|-------------------------|
|-------------------------|
|-------------------------|
|-------------------------|

You knew what you h[C]ad
You still walked aw[D]ay leaving me in this me[F]ss


|----------------------------|
|-15b17--15--13~\------------|
|----------------------------|
|----------------------------|
|----------------------------|
|----------------------------|

My love for y[G]ou is deep and meaningles[C]s



|----------------------|
|-13--11---------------|
|---------12--10~------|
|----------------------|
|----------------------|
|----------------------|


Guitar Solo: (2:15)



|-------------------------------------13------------------------------------13----|
|--------13----13-15-15b17--15pb17b17----15b17--15p13-15b17rb17--15pb17b17--------|
|-12h14-----14--------------------------------------------------------------------|
|---------------------------------------------------------------------------------|
|---------------------------------------------------------------------------------|
|---------------------------------------------------------------------------------|
|-----------------12-----------------------13-15----------------------15----------|
|-15b17--15-13-15----13~----15b16~-16b18~--------13~--15b17-15pb17b17----15pb17---|
|---------------------------------------------------------------------------------|
|---------------------------------------------------------------------------------|
|---------------------------------------------------------------------------------|
|---------------------------------------------------------------------------------|
|-------15b17-15-13-----------------13-----------------12-------------------------|
|-15p13-------------15b17-15pb17b17----15b17--15-13-15----13~\------13-11---------|
|-------------------------------------------------------------------------12-10---|
|---------------------------------------------------------------------------------|
|---------------------------------------------------------------------------------|
|---------------------------------------------------------------------------------|
|----------------------|
|----------------------|
|-8-10-10b12rp8--------|
|---------------10~----|
|----------------------|
|----------------------|


If you call me to[C]day
I'll say that I'm f[Bb]ine
But I bet you can t[Am]ell by the tone of my voice
It's just a l[F]ie
You knew what you h[C]ad
You still walked aw[D]ay leaving me in this me[F]ss
My love for y[G]ou is deep and meaningles[C]s


|----------------------|
|-13--11---------------|
|---------12--10~------|
|----------------------|
|----------------------|
|----------------------|

[Bb]Yeah[Am]
My love for y[G#]ou is d[Bb]eep and meaningl[C]ess

Chords:
C: x32010
G: 320033
Am: x02210
F: 133211
Dm: xx0231
E: 022100
D: xx0232
Bb: x1333x
G#: 466544

Chords List

Chord: Deep And Meaningless - Rooster - tab, song lyric, sheet, guitar, ukulele
Maybe you like