Chord/Tab song: Dead Air - Blessthefall

Chord,Tablature, lyric, sheet, guitar, ukulele song: Dead Air - Blessthefall - ( [Intro] D|---------------------------------|-----------...)

--
[Intro]


D|---------------------------------|-------------------------|
A|---------------------------------|-------------------------|
F|----------14h15p14------14-------|---------9h10p9----9-----|
C|---12h15------------15-----15----|---7h10----------10--10--|
G|---------------------------------|-------------------------|
C|---------------------------------|-------------------------|
D|--------------------------|-----------------------|
A|--------------------------|-----------------------|
F|--------10h12p10----10----|------9h10p9----9------|
C|--10h14----------14----14-|--8h12--------12--12---|
G|--------------------------|-----------------------|
C|--------------------------|-----------------------|


[Verse]


D|--------------|
A|--------------|
F|--7-----5-----|
C|--7--3--5--5--|
G|--5--3--3--5--|
C|-----3-----5--|


[Interlude #1]


D|-----------|
A|-----------|
F|--3--------|
C|--3--3--2--|
G|--1--3--2--|
C|-----3--2--|


[Chorus]


D|--------------|
A|--------------|
F|-----5-----3--|
C|--3--3--0--3--|
G|--3--3--0--1--|
C|--3-----0-----|


[Intro]


D|---------------------------------|-------------------------|
A|---------------------------------|-------------------------|
F|----------14h15p14------14-------|---------9h10p9----9-----|
C|---12h15------------15-----15----|---7h10----------10--10--|
G|---------------------------------|-------------------------|
C|---------------------------------|-------------------------|
D|--------------------------|-----------------------|
A|--------------------------|-----------------------|
F|--------10h12p10----10----|------9h10p9----9------|
C|--10h14----------14----14-|--8h12--------12--12---|
G|--------------------------|-----------------------|
C|--------------------------|-----------------------|


[Interlude #2]


D|----------------|
A|----------------|
F|--7--9--11--11--|
C|--7--9--11--11--| PM
G|--5--7--9---10--|
C|----------------|


[Chorus] x2


D|--------------|
A|--------------|
F|-----5-----3--|
C|--3--3--0--3--|
G|--3--3--0--1--|
C|--3-----0-----|


[Chorus] x2


D|--------------|
A|--------------|
F|-----5-----3--|
C|--3--3--0--3--|
G|--3--3--0--1--|
C|--3-----0-----|

Chords List

Chord: Dead Air - Blessthefall - tab, song lyric, sheet, guitar, ukulele
Maybe you like