Chord/Tab song: Crucify Me - Bring Me the Horizon

Chord,Tablature, lyric, sheet, guitar, ukulele song: Crucify Me - Bring Me the Horizon - ( NOTE ! This tab is not perfect but gives a good outline ...)

--
NOTE ! This tab is not perfect but gives a good outline

[Intro - Not actually played on bass] x2



G-------------------------------------12--13--12----|
D--------13---------13---------13----------------13-|
A 13--15----15--15-----15--15------15---------------|
E---------------------------------------------------|
G-------------------------------------15--13--12----|
D--------13---------13---------13----------------13-|
A 13--15----15--15-----15--15------15---------------|
E---------------------------------------------------|
G---------------------------------10-|
D--------10--------------10----------|
A 10--11----11-11-11--8-----8--11----|
E------------------------------------|


[Intro - Bass Part]



G--------------------------------------------| x2
D--------------------------------------------|
A 3333333333333333333------------------------|
E--------------------1111-4444----4444-1111--|
G---------5b(bend this hard)----------------|
D-------------------------------------------|
A-333333------------------------------------|
E-------------4444--------------------------|


[Verse Pt 1.]

CRUCIFY ME !



G------------------------------------------|
D------------------------------------------|

[A-33333333333333333333333333333333333333333]


E------------------------------------------


AND I'VE BEEN CAST ASTRAY


G------------------------------------------|
D------------------------------------------|
A------------------------------------------|
E--444444--111111--------------------------|

[ Tab from: https://www.guitartabs.cc/tabs/b/bring_me_the_horizon/crucify_me_btab.html ]
[Verse Pt 2.] x2



G-------------------------------------------------|
D-------------------------------------------------|
A-33333333333-------------------------------------|
E---------------44444444/16161616(sixteen)1111111-|
G------------|
D------------|
A------------|

[E-44444-33333]
[Chorus]
THERE IS A HELL BELIEVE ME I'VE SEEN IT !


G------------------------------------------------|
D------------------------------------------------|
A-33333333333------------------------------------|
E-----------------444444--111111--44444----------|
G------------------------------------------------|
D------------------------------------------------|
A-33333333333---------------------2b2b2b2b-------| Bent between 2 and 3
E-----------------444444--111111-----------------|


[Verse Pt 2.] x2



G-------------------------------------------------|
D-------------------------------------------------|
A-33333333333-------------------------------------|
E---------------44444444/16161616(sixteen)1111111-|
G------------|
D------------|
A------------|

[E-44444-33333]
[Interlude - Woman's Voice]



G------------------------------------------------|
D------------------------------------------------|
A-3-------33-3------1111--11---------------------|
E-------------------------------44---444---------|
G-------------------------------------------------|
D-------------------------------------------------|
A-333333333------11111111-----------------1111111-|
E-------------------------------4444444-----------|


Will finish xD

Chords List

Chord: Crucify Me - Bring Me the Horizon - tab, song lyric, sheet, guitar, ukulele
Maybe you like