Chord/Tab song: Concealed - Circle of Contempt

Chord,Tablature, lyric, sheet, guitar, ukulele song: Concealed - Circle of Contempt - ( fade in Riff 1 [Riff 1, Guitar 1 & 2] - [00:00] - [00:03...)

--
fade in Riff 1

[Riff 1, Guitar 1 & 2] - [00:00] - [00:03]


- --------------------------|
- --------------------------|
- --------------------------|
- -1---1-----1-----1--------|
- ---00--3-0---0000--3-2-1--|
- ---00--3-0---0000--3-2-1--|

PM .. ... .... ......


- --------------------------|
- --------------------------|
- --------------------------|
- -4---4-----4-----4--------|
- ---00--3-0---0000--3-2-1--|
- ---00--3-0---0000--3-2-1--|

PM .. ... .... ......

[Riff 2, Guitar 1 & 2] - [00:03] - [00:15]


- ------------------------------------------------------------|
- ------------------------------------------------------------|
- ---------------------------2--------------------------------|
- -1---1-----1-----1-----------1/4--------5h7----------1------|
- ---00--3-0---0000--3-2-1-00------3-1-4h7---3-2-1---00--3-1--|
- ---00--3-0---0000--3-2-1-00------3-1-------3-2-1---00--3-1--|

PM .. ... .... ........ ... .......... ...


- ------------------------------------------------------------|
- ------------------------------------------------------------|
- ---------------------------5------------3h6-----------------|
- -4---4-----4-----4-----------4/7-----2h5-------------4------|
- ---00--3-0---0000--3-2-1-00------3-1-------3-2-1---00--3-1--|
- ---00--3-0---0000--3-2-1-00------3-1-------3-2-1---00--3-1--|

PM .. ... .... ..... ... .......... ...



- ---------------------------------------------------------------------|
- ---------------------------------------------------------------------|
- ---------------------------------------------------------------------|
- -1---1-----1-----1-------0~--------------1-----------------/3\-------|
- ---00--3-0---0000--3-2-1-0~----------------3-1-2-----------2222------|
- ---00--3-0---0000--3-2-1-0~----------------3-1---3-1-0-0-0-2222-0w\--|

PM .. ... .... ..... ... ..........


- ---------------------------------------------------------------------|
- ---------------------------------------------------------------------|
- ---------------------------------------------------------------------|
- -4---4-----4-----4-------0~--------------4-----------------/3\-------|
- ---00--3-0---0000--3-2-1-0~----------------3-1-5-----------2222------|
- ---00--3-0---0000--3-2-1-0~----------------3-1---6-4-0-0-0-2222-0w\--|

PM .. ... .... ..... ... ..........

[Riff 2, Guitar 1 & 2] - [00:15] - [00:30]


- ---------------------------------------------------|
- ---------------------------------------------------|
- -77--------7/8/9-----------------------------------|
- -66--------6/7/8--------------------------/3\------|
- -55--------5/6/7-----------/3\----111-000-2222-----|
- -----------------2h3p2-----0000w\-111-000-2222-----|

PM ... ............


- ---------------------------------------------------|
- ---------------------------------------------------|
- -77--------7/8/9-----------------------------------|
- -66--------6/7/8--------------------------/3\------|
- -55--------5/6/7-----------/3\----111-000-2222-----|
- -----------------2h3p2-----0000w\-111-000-2222-----|

PM ... ............



- -------------------------------------------------------|
- -------------------------------------------------------|
- -77---------------7/8/9--------------------------------|
- -66---------------6/7/8--------------/3\--------1------|
- -55---------------5/6/7-------/3\----3333-1---00--3-1--|
- --------0w\-------------2h3p2-0000---3333-1---00--3-1--|

PM .................. ...


- -------------------------------------------------------|
- -------------------------------------------------------|
- -77---------------7/8/9--------------------------------|
- -66---------------6/7/8--------------/3\--------4------|
- -55---------------5/6/7-------/3\----3333-1---00--3-1--|
- --------0w\-------------2h3p2-0000---3333-1---00--3-1--|

PM .................. ...



- ----------------------------------------------|
- ----------------------------------------------|
- ----------------------------------------------|
- -1---1-----1-----1-----------/3\--1-----------|
- ---00--3-0---0000--3-2-1-----1111---3-1-2-----|
- ---00--3-0---0000--3-2-1-----1111---3-1---3-1-|

PM .. ... .... .............. ...


- ----------------------------------------------|
- ----------------------------------------------|
- ----------------------------------------------|
- -4---4-----4-----4-----------/3\--4-----------|
- ---00--3-0---0000--3-2-1-----1111---3-1-5-----|
- ---00--3-0---0000--3-2-1-----1111---3-1---6-4-|

PM .. ... .... .............. ...

[Riff 3, Guitar 1 & 2] - [00:30] - [00:44]


- -5~------5~------5~------5~------5~------5~------5~------5~------5~------|
- -----6~------6~------6~------6~------6~------6~------6~------6~------6~--|
- -------------------------------------------------------------------------|
- -------------------------------------------------------------------------|
- -------------------------------------------------------------------------|
- -------------------------------------------------------------------------|

[-]

- -------------------------------------------------------------------------|
- -------------------------------------------------------------------------|
- -------------------------------------------------------------------------|
- -0~------------------------------------------------0~--------------------|
- -0~--------------------0~----1~--------------------0~--------------------|
- -0~--------------------1~----2~--------------------0~--------------------|
- -5~------5~------5~------5~------5~------5~------5~------5~------|
- -----6~------6~------6~------6~------6~------6~------6~------6~--|
- -----------------------------------------------------------------|
- -----------------------------------------------------------------|
- -----------------------------------------------------------------|
- -----------------------------------------------------------------|

[-]

- -----------------------------------------------------------------|
- -----------------------------------------------------------------|
- -----------------------------------------------------------------|
- -3-3-3-3-3-3-3-3-3-3-3-3-3-3-3-3-5-5-5-5-5-5-5-5-5-5-5-5-5-5-5-5-|
- -0-0-0-0-0-0-0-0-0-0-0-0-0-0-0-0-1-1-1-1-1-1-1-1-1-1-1-1-1-1-1-1-|
- -0-0-0-0-0-0-0-0-0-0-0-0-0-0-0-0-1-1-1-1-1-1-1-1-1-1-1-1-1-1-1-1-|


[Riff 4, Guitar 1 & 2] - [00:44] - [00:55]


- ---------------------------------------------|
- ---------------------------------------------|
- ---------------------------------------------|
- -----0~--3~------------0~--------------------|
- ---3~------1~0h1p0~--1~----------------------|
- -5~----3~----------1~------------------------|

[-]

- ---------------------------------------------|
- ---------------------------------------------|
- ---------------------------------------------|
- -----0~--3~------------0~--------------------|
- ---3~------1~0h1p0~--1~----------------------|
- -5~----3~----------1~------------------------|
- -------------------------------------------------|
- -------------------------------------------------|
- -------------------------------------------------|
- -----0~--3~------------0~------------------------|
- ---3~------1~0h1p0~--1~--------------------------|
- -5~----3~----------1~----------------------------|

[-]

- -------------------------------------------------|
- -------------------------------------------------|
- -------------------------------------------------|
- -----0~--3~------------0~------------------------|
- ---3~------1~0h1p0~--1~--------------------------|
- -5~----3~----------1~----------------------------|
- -----------3---------------------|
- ---------2-----------------------|
- -------3-------------------------|
- -------------2-------2-----------|
- -0-0-00--------0-------0-4-------|
- -1-0-00--------0-0-3---0---------|

PM ...... . .


- -----------6---------------------|
- ---------5-----------------------|
- -------6-------------------------|
- -------------5-----------3-------|
- -0-0-00--------0-----4-0---------|
- -1-0-00--------0-4-3---0---------|

PM ...... . .

[Riff 5] - [00:55] - [01:27]


- ----------------------------------|
- ----------------------------------|
- ----------------------------------|
- ----------------------------------|

- -55~555~~5555~5~~~~55~555--5555~3-|
- -55~555~~5555~5~~~~55~555--5555~3-|
PM ................................



- ----------------------------------|
- ----------------------------------|
- ----------------------------------|
- ----------------------------------|

- -3~333~3333~~333~~~33~333--3333~5-|
- -3~333~3333~~333~~~33~333--3333~5-|
PM ................................

that's one bar at a time

note how the last 16th note of each bar switches frets and adds onto the chugging
sequence in the
next bar, which is what gives it that really ofttimes feel

heres the whole thing :



- ------------------------------------------------------------------|
- ------------------------------------------------------------------|
- ------------------------------------------------------------------|
- ------------------------------------------------------------------|
- -55~555~~5555~5~~~~55~555--5555~33~333~3333~~333~~~33~333--3333~5-|
- -55~555~~5555~5~~~~55~555--5555~33~333~3333~~333~~~33~333--3333~5-|

PM ................................................................



- ------------------------------------------------------------------|
- ------------------------------------------------------------------|
- ------------------------------------------------------------------|
- ------------------------------------------------------------------|
- -55~555~~5555~5~~~~55~555--5555~33~333~3333~~333~~~33~333--3333~5-|
- -55~555~~5555~5~~~~55~555--5555~33~333~3333~~333~~~33~333--3333~5-|

PM ................................................................



- ------------------------------------------------------------------|
- ------------------------------------------------------------------|
- ------------------------------------------------------------------|
- ------------------------------------------------------------------|
- -55~555~~5555~5~~~~55~555--5555~33~333~3333~~333~~~33~333--333330-|
- -55~555~~5555~5~~~~55~555--5555~33~333~3333~~333~~~33~333--333330-|

PM ................................................................



- ------------------------------------------------------------------------------------------------|
- ------------------------------------------------------------------------------------------------|
- ------------------------------------------------------------------------------------------------|
- -0-0-0-0-0-0-0-0-0-0-0-0-0-0-0-0-0-0-0-0-0-0-0-0------------------------------------------------|
- -1-1-1-1-1-1-1-1-1-1-1-1-1-1-1-1-1-1-1-1-1-1-1-1------------------------------------------------|
- -1-1-1-1-1-1-1-1-1-1-1-1-1-1-1-1-3-3-3-3-3-3-3-3------------------------------------------------|


fade in with open power chord

[Riff 6, Guitar 1 & 2] - [01:27] - [01:46]


- -----------------------------------------------------------------------|
- -----------------------------------------------------------------------|
- ------------2-------------------------------2--------------------------|
- ------------1-------------------------------1--------------------------|
- --100000000-00-00-00~0000-111----000000--00000-00---7h9p6-------9\--00-|
- -1-00000011--1-11-00~0000-222----000000--000-0-003/6------771010----00-|

PM ........ ............................... .... ...... ..


- -----------------------------------------------------------------------|
- -----------------------------------------------------------------------|
- ------------2-------------------------------2--------------------------|
- ------------1-------------------------------1--------------------------|
- --100000000-00-00-00~0000-111----000000--00000-00---7h9p6-------9\--00-|
- -1-00000011--1-11-00~0000-222----000000--000-0-003/6------771010----00-|

PM ........ ............................... .... ...... ..



- -----------------------------------------------------------------------|
- -----------------------------------------------------------------------|
- ------------2-------------------------------2--------------------------|
- ------------1-------------------------------1--------------------------|
- --100000000-00-00-00~0000-111----000000--00000-00---7h9p6-------6-3-1--|
- -1-00000011--1-11-00~0000-222----000000--000-0-003/6------771010--3-1--|

PM ........ ............................... .... ...... ...


- -----------------------------------------------------------------------|
- -----------------------------------------------------------------------|
- ------------2-------------------------------2--------------------------|
- ------------1-------------------------------1--------------------------|
- --100000000-00-00-00~0000-111----000000--00000-00---7h9p6-------9-3-1--|
- -1-00000011--1-11-00~0000-222----000000--000-0-003/6------771010--3-1--|

PM ........ ............................... .... ...... ...



- ------------------------------------------------------------|
- ------------------------------------------------------------|
- ---------------------------2--------------------------------|
- -1---1-----1-----1-----------1/4--------5h7-----------------|
- ---00--3-0---0000--3-2-1-00------3-1-4h7---3-2-1-----5\4--1-|
- ---00--3-0---0000--3-2-1-00------3-1-------3-2-1-----3\2--2-|

PM .. ... .... ........ ... .....


- ------------------------------------------------------------|
- ------------------------------------------------------------|
- ---------------------------5------------3h6-----------------|
- -4---4-----4-----4-----------4/7-----2h5--------------------|
- ---00--3-0---0000--3-2-1-00------3-1-------3-2-1-----5\4--1-|
- ---00--3-0---0000--3-2-1-00------3-1-------3-2-1-----3\2--2-|

PM .. ... .... ..... ... .....

[Riff 7, Guitar 1 & 2] - [01:46] - [02:03]


- ------------------------------------------------------------------------------------|
- ------------------------------------------------------------------------------------|
- ------------------------------------------------------------------------------------|
- ------------------------------------------------------------------------------------|
- -1b-0----5\4-----4477-5----0---------------------2----5\4---44--6-5---------------0-|
- ----1----6\5----------6-8\-1----11b------3pr3-3pr3----6\5-----114-3--8b-----------1-|

PM .... . ....


- ------------------------------------------------------------------------------------|
- ------------------------------------------------------------------------------------|
- ------------------------------------------------------------------------------------|
- ------------------------------------------------------------------------------------|
- ----------------771010--------------------------------------77--7-------------------|
- -8\1-----6\5----------6-8\-1----11b------3pr3-6pr6----6\5-----444-6--8b-----------1-|

PM ...... . ....



- ------------------------------------------------------------------------------------|
- ------------------------------------------------------------------------------------|
- ------------------------------------------------------------------------------------|
- ------------------------------------------------------------------------------------|
- -1b-0----5\4-----4477-5----0---------------------2----5\4---44--6-5--1~-------------|
- ----1----6\5----------6-8\-1----11b------3pr3-3pr3----6\5-----114-3--2~---115~------|

PM .... . .... ..


- ------------------------------------------------------------------------------------|
- ------------------------------------------------------------------------------------|
- ------------------------------------------------------------------------------------|
- ------------------------------------------------------------------------------------|
- ----------------771010--------------------------------------77--6-5--1~-------------|
- -8\1-----6\5----------6-8\-1----11b------3pr3-6pr6----6\5-----444-3--2~---115~------|

PM ...... . .... ..

[Riff 8] - [02:03] - [02:38]


- --------------------------------------------------------------|
- --------------------------------------------------------------|
- --------------------------------------------------------------|
- --------------------------------------------------------------|
- --------------------------------------------------------------|
- -8b-0----00----87750-8b-0----000000---8b-0-8b-0----00----8775-|

PM ................ ........... . ...............



- ------------------------------------------------------------------------------|
- ------------------------------------------------------------------------------|
- ---------7p3--------7p3-------------------------------------------------------|
- ---------------------------[7]------------------------------------------------|
- ------------------------------------------------------------------------------|
- -5-5--5-----555--5-----33------88700-8b-0----000000---8b-0-8b-0----00----8877-|

PM ...... ...... .. ..... ........... . ...............



- --------------------------------------------------------------|
- --------------------------------------------------------------|
- --------------------------------------------------------------|
- --------------------------------------------------------------|
- --------------------------------------------------------------|
- -8b-0----00----87750-8b-0----000000---8b-0-8b-0----00----8775-|

PM ................ ........... . ...............



- ------------------------------------------------------------------------------|
- ------------------------------------------------------------------------------|
- ---------7p3--------7p3-------------------------------------------------------|
- ---------------------------[7]------------------------------------------------|
- ------------------------------------------------------------------------------|
- -5-5--5-----555--5-----33------88700-8b-0----000000---8b-0-8b-0----00----8877-|

PM ...... ...... .. ..... ........... . ...............



- ------------------------------------------------------------|
- ------------------------------------------------------------|
- ------------------------------------------------------------|
- ------------------------------------------------------------|
- ------------------------------------------------------------|
- -8b-0----00----87750-8b-0----000000---8b-0-8b-0-8b-0w\------|

PM ................ ........... . .

[Riff 9, Guitar 1 & 2] - [02:38] - [02:52]


- ------------------------------------------------------------------------------------------|
- ------------------------------------------------------------------------------------------|
- ----------77----------------7/8/9----------------------------77---------7/8/9-------------|
- -/3\------66----------------6/7/8----------------------------66---------6/7/8-------------|
- -2222-----55----------------5/6/7-------/3\---------/3\------55---------5/6/7-------------|
- -2222-------------0w\-------------2h3p2-0000--------1111-0w\------------------2h3p2-------|

PM .... ................


- ------------------------------------------------------------------------------------------|
- ------------------------------------------------------------------------------------------|
- ----------77----------------7/8/9----------------------------77---------7/8/9-------------|
- -/3\------66----------------6/7/8----------------------------66---------6/7/8-------------|
- -2222-----55----------------5/6/7-------/3\----/3\-----------55---------5/6/7-------------|
- -2222-------------0w\-------------2h3p2-0000---1111------0w\------------------2h3p2-------|

PM .... ...........

Chords List

Chord: Concealed - Circle of Contempt - tab, song lyric, sheet, guitar, ukulele
Maybe you like