Chord/Tab song: Citra Od - Superman Is Dead

Chord,Tablature, lyric, sheet, guitar, ukulele song: Citra Od - Superman Is Dead - ( Judul : Citra OD Artis : Superman Is Dead Album : Black M...)

--
Judul : Citra OD
Artis : Superman Is Dead
Album : Black Market Love
Tab oleh : yoos
Email : yoos_yoes@yahoo.com

Intro:
[E5] [G5] [F#5]


e|----------------------------------------------------------------------------|
B|-----------------------------------------------------8-----------8-10-8-----|
G|--------------------------------------7---7-9-7-9~-----9-7-9-7-9--------9~--|
D|-----5-7-/9-7-5-7-5---5--------5-7-/9---9-----------------------------------|
A|--/7----------------7---7-5-/7----------------------------------------------|
E|----------------------------------------------------------------------------|


E5 G5 F#5 (berulang-ulang)
Masyarakat nan konsumtif lagu ini untukmu.
Ku berdiri dan melawan paradigma moderat
Dibutakan kemewahan enggan lihat tangis dibawah.
Remaja teracuni hidup didalam kepalsuan dunia.

[C5] [E5] [C5] [E5] [C5] [E5] [D5] [C5] [B5]
[E5]Ku [G5]tak[F#5] percaya, ingin kurubah, lingkaran bodoh yang tak pernah mati.
Cepat cepat bergerak teriakkan resisten!
Tangan keras mengepal jutaan jiwa muda berontak

[E5]We got the reason why?[G5][F#5]

[C5]Wor[E5]ld is so un[C5]rea[E5]l, you gotta ke[C5]ep [E5]it, you gotta k[D5]eep [C5]it f[B5]ake
[C5]Dow[E5]n, image over[C5]doz[E5]e, do you kno[C5]w w[E5]hat?
What creepers ar[D5]e m[C5]ade f[B5]or?

[E5] [G5] [F#5]
[E5]Bos[G5]an [F#5]ku mendengar agresi ketakpedulian
Ku kan bangkit melawan sampah sampah metropolitan.
Cepat cepat bergerak, teriakkan resisten!
Privasi hari ini adalah konsumsi

[E5]We got the reason why?[G5][F#5]

[C5]Wor[E5]ld is so un[C5]rea[E5]l, you gotta ke[C5]ep [E5]it, you gotta k[D5]eep [C5]it f[B5]ake
[C5]Dow[E5]n, image over[C5]doz[E5]e, do you kno[C5]w w[E5]hat?
What creepers ar[D5]e m[C5]ade f[B5]or?

[E5] [G5] [F#5]


e|----------------------------------------------------------------------------|
B|-----------------------------------------------------8-----------8-10-8-----|
G|--------------------------------------7---7-9-7-9~-----9-7-9-7-9--------9~--|
D|-----5-7-/9-7-5-7-5---5--------5-7-/9---9-----------------------------------|
A|--/7----------------7---7-5-/7----------------------------------------------|
E|----------------------------------------------------------------------------|


[D5] [E5] [D5] [E5] [D5] [E5] [D5] [E5]

e|-------------------------------------------------------------------------|
B|-------------------------------------------------------------------------|
G|--------------------------------------------------------------8-10-8-----|
D|--7-7-9--9--9--9-7-7-9--9--9--9-7-7-9--9--9--9-7-7-9--9--9--9--------9~--|
A|-------------------------------------------------------------------------|
E|-------------------------------------------------------------------------|


[E5]Tur[G5]n t[F#5]he TV on see the Paris Hilton smile
In the magazine how the youth has been so blind
If you got the look you will be alrite
But boy if you don?t tell your mama say goodbye
Psycho industry manufactured to the bones
Rockstar-wannabe plastic anorexic look
When will you learn, will you understand
Nothing in life is bigger than a giving heart?

Ku melawan! Resistensi! Lahir bukan untuk dibodohi!

Punk vs Trash?
Boleh juga!!!@@@@
Hehehe....

Chords List

Chord: Citra Od - Superman Is Dead - tab, song lyric, sheet, guitar, ukulele
Maybe you like