Chord/Tab song: Chris Drives Me Home - Whatever It Takes

Chord,Tablature, lyric, sheet, guitar, ukulele song: Chris Drives Me Home - Whatever It Takes - ( - Whatever It Takes - Chris Drives Me Home - Tabbed by: P...)

--
- Whatever It Takes - Chris Drives Me Home
- Tabbed by: Pacu, bassist from a brasilian punk rock band called PunkAss.
- This song is really cool to play on electric guitar. Some parts can be "not so right"
i think that's almost as the original. Hope it helps.
Ps: the tab's already in order, just follow it(listening to the song).
______________

Guitar I [wake up every morning...]


e|-------------------------------------------|
B|-------------------------------------------|
G|-6~--56~--666666666666666666666666---------|
D|-6~--56~--66666666666666666666666688888888-|
A|-4~--34~--44444444444444444444444488888888-|
E|----------------------------------66666666-|


Guitar II [wake up every morning...]


e|-------------------------------------------|
B|-------------------------------------------|
G|-6~--56~--6~-------------------------------|
D|-6~--56~--6~----------------------88888888-|
A|-4~--36~--4~----------------------88888888-|
E|----------------------------------66666666-|


Before chorus Guitar I


e|----------------------|----------------------------|
B|----------------------|----------------------------|
G|-6655-----------------|-6655-----------------------|
D|-665566666-886644444--|-665566666---88888888888888-|
A|-443366666-886644444--|-443366666---88888888888888-|
E|-----44444-664422222--|-----44444---66666666666666-|


Before chorus Guitar II


e|-----------------------|---------------------------|
B|-----------------------|---------------------------|
G|-6655---810--------108-|-6655---810----------------|
D|-6655666x-x-8866444-xx-|-6655666x-x-88888888888888-|
A|-44336666-8-8866444-86-|-44336666-8-88888888888888-|
E|-----444----6644222----|-----444----66666666666666-|


Chorus Guitar I


e|--------------------------------------------------|
B|--------------------------------------------------|
G|-------------66666-55555-------------xx6xx6xx6xx6-|
D|-44444-66666-66666-66666-44444-66666-xx6xx6xx6xx6-|
A|-44444-66666-44444-33333-44444-66666-xx4xx4xx4xx4-|
E|-22222-44444-------------22222-44444--------------|


Chorus Continuation Guitar I


e|----------------------------------------|
B|----------------------------------------|
G|-------------66666-55555-------------10-|
D|-44444-66666-66666-66666-44444-66666--x-|
A|-44444-66666-44444-33333-44444-66666--8-|
E|-22222-44444-------------22222-44444----|


Chorus Guitar II


e|-----------------------------------------------------|
B|-----------------------------------------------------|
G|-------------66666-55555----------------6--8--10--11-|
D|-44444-66666-66666-66666-44444-66666----x--x---x---x-|
A|-44444-66666-44444-33333-44444-66666----4--6---8---9-|
E|-22222-44444-------------22222-44444-----------------|


Chorus Continuation Guitar II


e|----------------------------------------|
B|----------------------------------------|
G|-------------66666-55555-------------10-|
D|-44444-66666-66666-66666-44444-66666--x-|
A|-44444-66666-44444-33333-44444-66666--8-|
E|-22222-44444-------------22222-44444----|

Only Guitar II [and just maybe...]


e|--------------------------------|
B|--------------------------------|
G|-5-6-8-6-5-6-10--5-6-8-6-5-6-10-|
D|-x-x-x-x-x-x--x--x-x-x-x-x-x--x-|
A|-3-4-6-4-3-4--8--3-4-6-4-3-4--8-|
E|--------------------------------|


Continuation Guitar I
[5x] [1x]


e|--------------------------------|-------------------------|
B|--------------------------------|-------------------------|
G|-xx6xx6xxxxx66----xx6xx6xxxxx66-|-------------------------|
D|-xx6xx6xxxxx66----xx6xx6xxxxx66-|-88888888888888888888888-|
A|-xx4xx4xxxxx44---xx4xx4xxxxx44-|-88888888888888888888888-|
E|--------------------------------|-66666666666666666666666-|


Continuation Guitar II
[5x] [1x]


e|--------------------------------|-------------------------|
B|--------------------------------|-------------------------|
G|-5-6-8-6-5-6-10--5-6-8-6-5-6-10-|-------------------------|
D|-x-x-x-x-x-x--x--x-x-x-x-x-x--x-|-88888888888888888888888-|
A|-3-4-6-4-3-4--8--3-4-6-4-3-4--8-|-88888888888888888888888-|
E|--------------------------------|-66666666666666666666666-|


Chorus Guitar I


e|--------------------------------------------------|
B|--------------------------------------------------|
G|-------------66666-55555-------------xx6xx6xx6xx6-|
D|-44444-66666-66666-66666-44444-66666-xx6xx6xx6xx6-|
A|-44444-66666-44444-33333-44444-66666-xx4xx4xx4xx4-|
E|-22222-44444-------------22222-44444--------------|


Chorus Continuation Guitar I


e|-------------------------------------|
B|-------------------------------------|
G|-------------66666-55555-------------|
D|-44444-66666-66666-66666-44444-66666-|
A|-44444-66666-44444-33333-44444-66666-|
E|-22222-44444-------------22222-44444-|

[ Tab from: http://www.guitartabs.cc/tabs/w/whatever_it_takes/chris_drives_me_home_tab.html ]
Chorus Guitar II


e|-----------------------------------------------------|
B|-----------------------------------------------------|
G|-------------66666-55555----------------6--8--10--11-|
D|-44444-66666-66666-66666-44444-66666----x--x---x---x-|
A|-44444-66666-44444-33333-44444-66666----4--6---8---9-|
E|-22222-44444-------------22222-44444-----------------|


Chorus Continuation Guitar II


e|-------------------------------------|
B|-------------------------------------|
G|-------------66666-55555-------------|
D|-44444-66666-66666-66666-44444-66666-|
A|-44444-66666-44444-33333-44444-66666-|
E|-22222-44444-------------22222-44444-|


Guitar I [woke up dreading morning...]


e|--------------------------|
B|--------------------------|
G|-6~-----------6~----------|
D|-6~-8~-6~-4~--6~-8~-6~-4~-|
A|-4~-8~-6~-4~--4~-8~-6~-4~-|
E|----6~-4~-2~-----6~-4~-2~-|


Guitar II [woke up dreading morning...]


e|--------------------------|
B|--------------------------|
G|-6~-6~-6~-6~--6~-6~-6~-6~-|
D|-x--x--x--x---x--x--x--x--|
A|-4~-x--x--x---4~-x--x--x--|
E|----6~-4~-2~-----6~-4~-2~-|


Guitar I [wake up every morning, every day...]


e|--------------------------|
B|--------------------------|
G|-6~-----------6~----------|
D|-6~-8~-6~-4~--6~-8~-6~-4~-|
A|-4~-8~-6~-4~--4~-8~-6~-4~-|
E|----6~-4~-2~-----6~-4~-2~-|


Guitar II [wake up every morning, every day...]


e|----------------------------------|
B|----------------------------------|
G|-6-5-6-8-6-5-6-8-6-5-6-8-10-8-6-5-|
D|----------------------------------|
A|----------------------------------|
E|----------------------------------|


Only Guitar II [16x]
e|-----|
B|-----|
G|-6b5-|
D|-----|
A|-----|
E|-----|

Guitar I


e|---------------------------------------------------|
B|---------------------------------------------------|
G|-6~------------------------------------------------|
D|-6~--------------88--------------6---------------4-|
A|-4~--------------88--------------6---------------4-|
E|-----------------66--------------4---------------2-|


Guitar II


e|---------------------------------------------------|
B|---------------------------------------------------|
G|-6b5-6b5-6b5-6b5-6b5-6b5-6b5-6b5-6b5-6b5-6b5-6b5-6-|
D|---------------------------------------------------|
A|---------------------------------------------------|
E|---------------------------------------------------|


Guitar I [2x]


e|-------------------------------------|
B|-------------------------------------|

G|-66666666-66666666-66666666-66666666-|
D|-66666666-xxxxxxxx-xxxxxxxx-xxxxxxxx-|
A|-44444444-44444444-66666666-44444444-|


E|----------66666666-44444444-22222222-|


Guitar II [2x]


e|-------------------------------------|
B|-------------------------------------|

G|-65565568-65565568-65565568-65565568-|
D|-xxxxxxxx-xxxxxxxx-xxxxxxxx-xxxxxxxx-|
A|-43343346-43343346-43343346-43343346-|


E|-------------------------------------|


Guitar I [2x]


e|-------------------------------------------------------------|
B|-------------------------------------------------------------|
G|-66666666666666--66666666666666--66666666666666--66666666666-|
D|-66666666666666--xxxxxxxxxxxxxx--xxxxxxxxxxxxxx--xxxxxxxxxxx-|
A|-44444444444444--44444444444444--66666666666666--44444444444-|
E|-----------------66666666666666--44444444444444--22222222222-|


Guitar II [2x]


e|-------------------------------------------------------------|
B|-------------------------------------------------------------|
G|-6-666-5-55-6-8--6-666-5-55-6-8--6-666-5-55-6-8--10-1010-8-5-|
D|-x-xxx-x-xx-x-x--x-xxx-x-xx-x-x--x-xxx-x-xx-x-x---x--x-x-x-x-|
A|-4-444-3-33-4-6--4-444-3-33-4-6--4-444-3-33-4-6---8--8-8-6-3-|
E|-------------------------------------------------------------|


Guitar I [wake up everyday to the same sad face...] [2x]


e|--------------------|
B|--------------------|
G|-6~--6~--6~-----6~--|
D|-6~--6~--6~-----x---|
A|-4~--x---x------4~--|
E|-----6~--4~-----2~--|


Guitar II [wake up everyday to the same sad face...] [2x]


e|--------------------|
B|--------------------|
G|----65~-63~-5610865-|
D|----xx--xx--xx-xxxx-|
A|----43~-41~-34-8643-|
E|--------------------|


Guitar I [1x]


e|--------------------|
B|--------------------|
G|-6~--6~--6~-----6~--|
D|-6~--6~--6~-----x---|
A|-4~--x---x------4~--|
E|-----6~--4~-----2~--|


Guitar II [1x]


e|--------------------|
B|--------------------|
G|-6~--6~--6~-5610865-|
D|-x---x---x--xx-xxxx-|
A|-4~--3~--4~-34-8643-|
E|--------------------|

Guitar I


e|----------------------------|
B|----------------------------|
G|-6~--6~--65353-3-3----------|
D|-6~--6~-------6-6-6536535---|
A|-4~--x-------------------4~-|
E|-----6~---------------------|



Guitar II


e|----------------------------|
B|----------------------------|
G|-6~--6~-65~--5610865-----6~-|
D|-x---x--xx---xx-xxxx-----x--|
A|-4~--4~-43~--34-8643-----4~-|
E|----------------------------|

Chords List

Chord: Chris Drives Me Home - Whatever It Takes - tab, song lyric, sheet, guitar, ukulele
Maybe you like