Chord/Tab song: CHE.R.RY - YUI

Chord,Tablature, lyric, sheet, guitar, ukulele song: CHE.R.RY - YUI - ( CHE.R.RY - YUI Tabbed by:xXBlackCat Email:KNekoS@aol....)

--

-------------------------------------------------------------------------------

CHE.R.RY - YUI


-------------------------------------------------------------------------------

Tabbed by:xXBlackCat
Email:KNekoS@aol.com

Tuning: Standard

No lyrics this time either, if you desperately want the tabs with the lyrics, ill put it up.

Intro:
F A# x2
(or)


e|------------------------------|
B|------------------------------|
G|---2-2-0----------3-3-2-0-2---|
D|---------3/5-----3------------|
A|--3-------------1-------------|
E|-1----------------------------| x2

( Tab from: http://www.guitartabs.cc/tabs/y/yui/cherry_crd_ver_2.html )
Verse:
F/F/C/C x2

Pre-chorus:
[Gm/A#]
[Gm/D#/C]
Chorus:
[A#/C/F]
[A#/C/Dm]
[A#/C/F]
[Dm/C/A#]
Repeat Intro, Verse, Pre-chorus, and Chorus.

Bridge:
[D#/F]
[D#/F/G/C]
Repeat Chorus Twice


| / slide up
| \ slide down
| h hammer-on
| p pull-off
| ~ vibrato
| + harmonic
| x Mute note

Chords List

Chord: CHE.R.RY - YUI - tab, song lyric, sheet, guitar, ukulele
Maybe you like