Chord/Tab song: Chain Link Fence - Lucero

Chord,Tablature, lyric, sheet, guitar, ukulele song: Chain Link Fence - Lucero - ( ittle: Chain Link Fence Power chords- F A C D Bb [Bb] ...)

3 years ago364 Tennessee (2002) Lucero
--
ittle: Chain Link Fence

Power chords- F A C D Bb
[Bb]

E|-----1------|
B|-----3------|
G|-----3------|
D|-----3------|
A|-----1------|
E|-----X------|


[F]

E|-----1------|
B|-----1------|
G|-----2------|
D|-----3------|
A|-----3------|
E|-----1------|


[C]

E|-----3------|
B|-----5------|
G|-----5------|
D|-----5------|
A|-----3------|
E|-----X------|


[D]

E|-----5------|
B|-----7------|
G|-----7------|
D|-----7------|
A|-----5------|
E|-----X------|


[A]

E|-----5------|
B|-----5------|
G|-----5------|
D|-----7------|
A|-----7------|
E|-----5------|




Intro: F A C

[F]well she's sittin right there on the chain link fence
[F]standing at the park with the rest of her friends
[A]and she looks so pretty, but she's only sixteen
[C]I didn't know that when she smiled at me
[F]now the boys are hunched over their electric guitars
[F]lying in the grass out beside my car
[A]follow her down to the dixie freeze
[C]hold on, hold on, hold on to me

chorus:
[Bb]sweet gi[F]rl, wont[C] let go for the world[A]
[Bb]cause I'm not [F]from here
[A]and I'm afraid that I might never see you[D] again[C][Bb]

[F] [A] [C]
[F]now it's the end of summer and I'm just twenty-one
[F]been California for the last two months
[A]and there weren't no girls like her out there
[C]her boyfriend don't like me and I think that's fair

[F]so I'm sittin right here on the chain link fence
[F]when she smiles at me gonna take my chance
[A]well I know the shows over but I wish you wouldn't leave
[C]hold on, hold on, hold on to me

chorus: same as the

Chords List

Chord: Chain Link Fence - Lucero - tab, song lyric, sheet, guitar, ukulele
Maybe you like