Chord/Tab song: Built for Speed - Stray Cats

Chord,Tablature, lyric, sheet, guitar, ukulele song: Built for Speed - Stray Cats - ( Intro [E] |-----------------| |-2---2---2-------| |----...)

--
Intro
[E]

|-----------------|
|-2---2---2-------|
|-------------2-4-| x4
|-----------------|


Verse 1
[E]

|---------------------------------|-----------------------------0-1-|
|-2---2---2---2---2---2---2-------|-2---2---2---2---2---2---2-4-----|
|-----------------------------2-4-|---------------------------------|
|---------------------------------|---------------------------------|


[A] [E]

|-2-------2-------2-------2-------|---------4---6---7---6---4-------|
|-----2-------2-------2-------2---|-2---6-----------------------6---|
|---------------------------------|---------------------------------|
|---------------------------------|---------------------------------|


[B] [A] [E]

|-4---------------2-------2---2---|---------------------------------|
|-----2-------2------2--2---------|-2---2---2-------2---2---2-----0-|
|---------2-----------------------|-------------2-4-----------2-4---|
|---------------------------------|---------------------------------|


Verse 2
[E]

|---------------------------------|---------------------------------|
|-2---2---2-------2---2---2-------|-2-------2---2---2---2---2-------|
|-------------2-4-------------2-4-|-----2---------------------4-3-2-|
|---------------------------------|---------------------------------|


[A] [E]

|---------------------------------|---------4---6---7---6---4-------|
|---------------------------------|-2---6-----------------------6---|
|-0---0---0-------0-------0---0-0-|---------------------------------|
|-------------0-2-----0-----------|---------------------------------|


[B] [A] [E] [B]

|-------------------------2---0---|---------------------------------|
|-----4-------4-------2---------4-|-2---2---2---2-------------------|
|-2-------2-------0---------------|-----------------2---2---2---2---|
|---------------------------------|---------------------------------|


Chorus
[E] [A] [F#]

|---------------------------------|-2-------0-----------------------|
|---------0-------0-0-------------|-----2-4---4-2---------1-2-1-----|
|-----2-4---4-2-4-----4-2---------|---4-----------4---1-4-------4-1-|
|-0-4---------------------4-4-2-0-|-----------------2---------------|


[E] [B] [E]

|---------------------------------|---------------------------------|
|-2---2---2---2-------2-----------|-2---2---2-------2---2---2-------|
|-----------------2-------2---2---|-------------2-4-------------2-4-|
|---------------------------------|---------------------------------|


Solo
[E]

|---------------------------------|-----------------------------0-1-|
|-2-------2-------2-------2-------|-2-------2-------2-------2-4-----|
|-----2-------2-4-----2-------2-4-|-----2-------2-4-----4-----------|
|---------------------------------|---------------------------------|


[A] [E]

|-2-------2-------2-------2-------|---------------------------------|
|-----2-------2-------2-------2---|-2-------2-------2---2---2---2---|
|---------------------------------|-----2-------2-------------------|
|---------------------------------|---------------------------------|


[B] [A] [E]

|-----------------2-------2-------|---------------------------------|
|---------------------2-------2---|-2---2---2-------2---2---2-------|
|-2-------2-----------------------|-------------2-4-------------2-4-|
|-----2-------2-------------------|---------------------------------|


Verse 3
[E]

|---------------------------------|---------------------------------|
|-2---2---2---2---2---2---2-------|-2---2---2---2---2---2---2-2-----|
|-----------------------------2-4-|-----------------------------4-2-|
|---------------------------------|---------------------------------|


[A] [E]

|---------------------------------|---------4---6---7---6---4-------|
|-----------------------------0-1-|-2---6-----------------------6---|
|-0---0---0---0---0---0---0-4-----|---------------------------------|
|---------------------------------|---------------------------------|


[B] [A] [E] [B]

|---------------------------------|---------------------------------|
|---------------------2-------2---|-2---2---2---2-------------------|
|-2-------2-------0-------0-------|-----------------2---2---2---2---|
|-----2-------2-------------------|---------------------------------|


Chorus
[E] [A] [F#]

|---------------------------------|---------0-----------------------|
|---------0-------------0-2-0-----|-----2-4---4-2---------1-2-1-----|
|-----2-4---4-2-------2-------4-2-|-0-4-----------4---1-4-------4-1-|
|-0-4-----------4-0-4-------------|-----------------2---------------|


[E] [B] [E]

|---------------------------------|---------------------------------|
|-2---2---2---2-------------------|-2---2---2-------2---2---2-----0-|
|-----------------2---2---2---2---|-------------2-4-----------2-4---|
|---------------------------------|---------------------------------|


Outro
[E]

|-----------------||-------------------||
|-2---2---2-----0-||-2---2---2-------||
|-----------2-4---||-------------2-4-|| Repeat until fade out
|-----------------||-------------------||

Chords List

Chord: Built for Speed - Stray Cats - tab, song lyric, sheet, guitar, ukulele
Maybe you like