Chord/Tab song: Brother - Gerard Way

Chord,Tablature, lyric, sheet, guitar, ukulele song: Brother - Gerard Way - ( Does an[D]yone have the time to br[A]ing me do[G]wn? And ...)

--
Does an[D]yone have the time to br[A]ing me do[G]wn?
And can I s[Em]leep all ni[G]ght l[A]ong to the drums of the city ra[D]in?
Just m[A]ake it u[G]p
'Cause I'm a[Em]wake all ni[G]ght lo[A]ng to the drums of the city r[D]ain

And bro[D]ther if you have the chance to p[A]ick me [G]up?
And can I sl[Em]eep on yo[G]ur co[A]uch to the pound of the ache and p[D]ain?
Oh, i[A]n my h[G]ead 'cause I'm a[Em]wake all ni[G]ght lo[A]ng to the drums of the city r[D]ain

The li[D]ghts we chase[A]
[G]The nights we steal
The th[Em]ings that we take[G]
To m[A]ake us feel this
[D]I can't go back[A]
[G]Don't think I will
I won't s[Em]leep tonight as long as[G] I [A]still
Hear the drums of the city r[D]ain

Does an[D]yone have the guts to sh[A]ut me u[G]p?
'Cause I be[Em]lieve that ever[G]y ni[A]ght
There's a chance we can walk a[D]way
So ho[A]ld on [G]tight
Because I wo[Em]n't wait t[G]oo l[A]ong in the drums of the beating ra[D]in

'Cause the n[D]ights don't last
[A]And we l[G]eave alone
Will you d[Em]rive me back?
C[G]an you t[A]ake me home?[D]

The li[D]ghts we chase[A]
[G]The nights we steal
The th[Em]ings that we take[G]
To m[A]ake us feel this
[D]I can't go back[A]
[G]Don't think I will
I won't s[Em]leep tonight as long as[G] I [A]still
Hear the drums of the city r[D]ain

[Em]Faces I don't know
[G]I am tired in the glow
[D]Of the freezing glow
[Bm]Keep me breathing
[Em]don't make the lights come back
[G]Can you take me home?
[D]We all need this when
[Bm]we leave alone[D]

Re[D]member when you and I would m[A]ake things [G]up?
So many n[Em]ights, just take [G]me d[A]own to the place we could hear them p[D]lay
I mi[A]ss that so[G]und
'Cause now we d[Em]on't sing s[G]o l[A]oud, to the drums of the city r[D]ain

The li[D]ghts we chase[A]
[G]The nights we steal
The th[Em]ings that we take[G]
To m[A]ake us feel this
[D]I can't go back[A]
[G]Don't think I will
I won't s[Em]leep tonight as long as[G] I [A]still
Hear the drums of the city r[D]ain

Like str[D]angers laugh[A] and l[G]ike subways feel things
I'm tr[Em]ying to break
[G]Oh, just wa[A]it until
[D]this is all[A] we ha[G]ve to keep us ill
I won't b[Em]reathe tonight as long as [G]I st[A]ill hear the drums of the city r[D]ain


Bass tab



e|--------------------------------------------------------|
B|--------------------------------------------------------|
G|--------------------------------------------------------|
D|--------------------------------------------------------|
A|-5-4-2-0-----0-0-1-1-2-0--------------------------------|
E|---------3-3-------------3-2-0-0-2-3-5------------------|


"The lights we chase .." part in tabs.



e|--------------------------------------------------------|
B|-10-10-7-7---7---------7---7--------7---7------10-7-----|
G|-----------9---9-7-------9---9-7------9---9-7-----------|
D|--------------------9------------9----------------------|
A|--------------------------------------------------------|
E|--------------------------------------------------------|
e|--------------------------------------------------------|
B|-7-10-10-7-7---7---------7---7--------7---7------10-7---|
G|-------------9---9-7-------9---9-7------9---9-7---------|
D|----------------------9------------9--------------------|
A|--------------------------------------------------------|
E|--------------------------------------------------------|

Chords List

Chord: Brother - Gerard Way - tab, song lyric, sheet, guitar, ukulele
Maybe you like