Chord/Tab song: Breathe Out - Nothingface

Chord,Tablature, lyric, sheet, guitar, ukulele song: Breathe Out - Nothingface - ( Tunning:A#,F,A#,D#,G,C drop A 2 steps down PM-palm mute e...)

--
Tunning:A#,F,A#,D#,G,C drop A 2 steps down
PM-palm mute every note with - under them

/-slide up
\-slide down
'-let note ring out 1 count
This tab is perfect, it took me about an hour,
I worked hard to get it perfect so i hope you have fun
playing this song its very easy.
Riff A: play 4 x's (heavy distortion)
[-]
[-]
[-]

-0-6-5-0-6-5-0-6-5-0-666
-0-6-5-0-6-5-0-6-5-0-666
-0-6-5-0-6-5-0-6-5-0-666


Riff B: play 6 x's
[-]
[-]
[-]
[-] [3-323-323-3-6666]
[-] [3-323-323-3-6666]
[-333-323-323-3-6666]
[--]
Riff C: play once
[-]
[-]
[-]
[-]

-0'-2\5-0'-2\5/4-0'-2\5-0'-2


Riff D: play 8 x's
[-]
[-]
[-]
[-] [3-323-323-3-6666]
[-] [3-323-323-3-6666]
[-333-323-323-3-6666]
[--]
Riff E: play once
[-]
[-]
[-]
[-]
[-]

-0'-2\5-0'-2\5/4-0'-2\5-0'-2


Riff F: play once
[-]
[-]
[-]

-0-6-5-0-6-5-0-6-5-0-12/3
-0-6-5-0-6-5-0-6-5-0-12/3
-0-6-5-0-6-5-0-6-5-0-12/3


Riff G: play 8 x's
[-]
[-]
[-]
[-] [3-323-323-3-6666]
[-] [3-323-323-3-6666]
[-333-323-323-3-6666]
[--]
Riff H: play 4 x's


--------------------------------------------------
--------------------------------------------------
-----------------------------------------1-2-1-2-1
---4---4---4-----------------4---4---4------------
----------------9----9---9------------------------
-0---2---3---\9---10---7---0---2---3---2----------


Riff I: play once


------------------------------------------------------------------------------
------------------------------------------------------------------------------
------------------------------------------------------------------------------
------------------------------------------------------------------------------
------------------------------------------------------------------------------
-0---2---3---\9---10---7---0---2---3---2---0---2---3---\9---10---7---0---2---3


Riff J: play once
[-]
[-]
[-]
[-]
[-]-0000000000000000000000000000


----------------------------


Riff K: play 4 x's
[-]
[-]
[-]

-0-0-0-0-1-0-0--0-0-0-1-0-0--0-0-0-1-0-0--6-6-6-7-7-7
-0-0-0-0-1-0-0--0-0-0-1-0-0--0-0-0-1-0-0--6-6-6-7-7-7
-0-0-0-0-1-0-0--0-0-0-1-0-0--0-0-0-1-0-0--6-6-6-7-7-7
- - - - - - - - - -

Riff L: play 8 x's
[-]
[-]
[-]

-0-0-0-0-0-0-1-1-1-1-1-1-4-4-4-4
-0-0-0-0-0-0-1-1-1-1-1-1-4-4-4-4
-0-0-0-0-0-0-1-1-1-1-1-1-4-4-4-4


Riff M: play 4 x's
[-]
[-]
[-]

-0-0-0-0-1-0-0--0-0-0-1-0-0--0-0-0-1-0-0--6-6-6-7-7-7
-0-0-0-0-1-0-0--0-0-0-1-0-0--0-0-0-1-0-0--6-6-6-7-7-7
-0-0-0-0-1-0-0--0-0-0-1-0-0--0-0-0-1-0-0--6-6-6-7-7-7
- - - - - - - - - -



Band: NothingFace
Tuning- BEADGB

Riff #1


b----------------------------------------------------------------------|
G----------------------------------------------------------------------|
D----------------------------------------------------------------------|
A--------10--10------10--10----10--10-------10-10-----10-10-10---------|
E---------8---7--------8---7-------8---7--------8---7------8--8--8-----|
B----0------------0-------------0------------0-----------0-------------|


Riff #2


-----------------------------------------------------------------------|
-----------------------------------------------------------------------|
-----------------------------------------------------------------------|
-----------------------------------------------------------------------|
-----------5---5--6--5----5--6--5---8-8-8-8----------------------------|
----3--3--3---3--4--3----3--4--3---6-6-6-6-----------------------------|


Riff #3


-----------------------------------------------------------------------|
-----------------------------------------------------------------------|
-----------------------------------------------------------------------|
---------------------------------7---6---------------------------------|
------7----8----5------7---8------------7---8---5-----------7---5------|
-----------------------------------------------------------------------|

Riff #4


-----------------------------------------------------------------------|
-----------------------------------------------------------------------|
--------1------1-------1------1-------1------1-------------------------|
------------------------------------0------1---------------------------|
----------------------------4------------------------------------------|
----0-------2------3---------------------------------------------------|
-----------------------------------------------------------------------|
-----------------------------------------------------------------------|
-------1------1-----1------3--4--3--4--3-------------------------------|
-----------------------------------------------------------------------|
-----------------------------------------------------------------------|
----0------2-----3-----2-----------------------------------------------|


Riff #5 (play over riff 4)


-------------------------------------------|------------------------------|
-------------------------------------------|------------------------------|
-------------------------------------------|------------------------------|
------------------------6----7-------------|---2----4----6----4-----------|
---2----4----6--------4----5-----8---------|---2----4----6----4-----------|
---0----2----3--------------------6--------|---0----2----3----2--(chug)---|


Riff #6


-------------------------------------------------------
-------------------------------------------------------
-------------------------------------------------------
---------------10--9--9--9--------------10-9--9--9-----
----------------8--7--7--7---------------8--7--7--7----
-0--0--0--0-----------------0--0--0--------------------
-------------------------------------------------------|
-------------------------------------------------------|
-------------------------------------------------------|
----------10--9--9--9-----10-10-10--10-10-10-10--------|
-----------8--7--7--7-----8--8--8----8--8--8--8--------|
-0--0--0-----------------------------------------------|

Chords List

Chord: Breathe Out - Nothingface - tab, song lyric, sheet, guitar, ukulele
Maybe you like