Chord/Tab song: Breaking the Chains - Dokken

Chord,Tablature, lyric, sheet, guitar, ukulele song: Breaking the Chains - Dokken - ( (i know no one really looks at intro tabs but i figured i...)

--
(i know no one really looks at intro tabs but i figured it should help if you combine it
some of the other full tabs for this song)

email adress: dead2rights2006@yahoo.com



[---------------main riff-----------------]


PM PM PM


E|------------------------------------------------------------------------|
B|------------------------------------------------------------------------|
G|------------------------------------------------------------------------|
D|------------------------------------------------------------------------|
A|-7--7--5--5-------------5--5--3--3-------------3-3-/5------------5-5-/7-|
E|-9--9--7--7---0-0-0-0---7--7--5--5---0-0-0-0---5-5-/7--0-0-0-0---7-7-/9-|


(2ND GUITAR COMES IN WITH THIS RIFF)



E|----------------------------------------------------------------------|
B|----------------------------------------------------------------------|
G|11-xx11-xx11-xx11-xx-12-xx-12-xx-12-xx-12-xx-14-xx-14-xx-14-xx-14-xx--|
D|-9-xx-9-xx-9-xx-9-xx-10-xx-10-xx-10-xx-10-xx-12-xx-12-xx-12-xx-12-xx--|
A|-9-xx-9-xx-9-xx-9-xx-10-xx-10-xx-10-xx-10-xx-12-xx-12-xx-12-xx-12-xx--|
E|----------------------------------------------------------------------|
E|-----------------------15------17-~~~~~~~~~~~~~~~~~~~~~~~~~~~~~~~~~~~|
B|---------------------------------------------------------------------|
G|------------------16-------------------------------------------------|
D|-----16-----16-------------------------------------------------------|
A|-----14--------------------------------------------------------------|
E|---------------------------------------------------------------------|
[Rythm fig. 1]-------palm mute all-----------|PLAY 2X
E|-----------------------------------------------------------------------|
B|-----------------------------------------------------------------------|
G|-----------------------------------------------------------------------|
D|-----------------------------------------------------------------------|
A|-7--7--5--5------------5-5-3-3-------------3-3-5-5------------5-5-7-7--|
E|-9--9--7--7---0-0-0-0--7-7-5-5---0-0-0-0---5-5-7-7---0-0-0-0--7-7-9-9--|


Pre-Chorus
PM


E|--------------------------------------------|
B|--------------------------------------------|
G|--------------------------------------------|
D|-9----5------7---7--------------------------|
A|-7----3------5---5--------------------------|
You need a change E|---------------------------------0-0-0-0----|
--PLAY THIS 2X----


PM PM PM PM


E|-------------------------------------------------------------------------|
B|-------------------------------------------------------------------------|
G|-------------------------------------------------------------------------|
D|-------------------------------------------------------------------------|
A|-7-7-/5---------------5-5-/3------------3-3-/5------------5-5-/7---------|
E|-9-9-/7----0-0-0-0----7-7-/5---0-0-0-0--5-5-/7---0-0-0-0--7-7-/9-0-0-0-0-|


Bridge-play right before chorus


E|-----------------------------------------------------------------------|
B|-----------------------------------------------------------------------|
G|-----------------------------------------------------------------------|
D|-9--------7--------5---------------------------------------------------|
A|-7--------5--------3---------9-------7-------5-------------------------|
E|-----------------------------7-------5-------3-------------------------|


CHORUS



E|---------------------------------------|---------------------------------|
B|-----------------------------------3---|---------------------------------|
G|-----------------------------------2---|--3------------------------------|
D|----7-------5------0-------2-------0---|--0--------------9------7-----9--|
A|----5-------3------2-------0-----------|--0--------------7------5-----7--|
E|---------------------------------------|--3--------0---------------------|
E|--------------------------------------|----------------------------------|
B|--------------------------------------|----------------------------------|
G|--------------------------------------|--3-------------------------------|
D|--5---------------9-----7-----9-------|--0---------------9-----7-----9---|
A|--3---------------7-----5-----7-------|--0---------------7-----5-----7---|
E|-----------0--------------------------|--3--------0----------------------|
E|---------------------------------------|---------------------------------|
B|---------------------------------------|---------------------------------|
G|---------------------------------------|---------------------------------|
D|--5-------7---------9-9-9-9------------|---------------------------------|
A|--3-------5---------7-7-7-7------------|---------------------------------|
E|---------------------------------------|---------------------------------|

now you're breakin the chains

RIGHT BEFORE SOLO PLAY THIS:



E|-----------------||---------------------|----------------|---------------|
B|-----------------||---------------------|----------------|---------------|
G|-----------------||---------------------|----------------|---------------|
D|-9----7----------||--------7------9-----|9----7----------|------7-----9--|
A|-7----5----9-----||--9-----5------7-----|7----5-----9----|9-----5-----7--|
E|-----------7-----||--7------------------|-----------7----|7--------------|
Guitar Solo----------------------------------------------------------------
|----------------------------------------|---------------------p-h-p-h-----|
|--------b---------------------b---------|-----7-8-10-10~--12-10-8-7-8-7---|
|----9--11-11-(12)-11-(12)-11--11--9-----|---8---------------------------9-|
|-9----------------------------------10~-|-9-------------------------------|
|----------------------------------------|---------------------------------|
|----------------------------------------|---------------------------------|
|------14-14-(15)-14-(15)-14-(15)-12-14-12-----|---------------7-----------|
|---12--b---------------------------h--p---13-~|------7--8--10-----8--7----|
|-12-------------------------------------------|---8---------------------9-|
|----------------------------------------------|-9-------------------------|
|----------------------------------------------|---------------------------|
|----------------------------------------------|---------------------------|
|--17--17-(18)--17-(18)---17--(18)---17-|-(18)------15---14-------p--------|
|--b------------------------------------|--------------p------15----14-----|
|---------------------------------------|-------------------------------16-|
|---------------------------------------|----------------------------------|
|---------------------------------------|----------------------------------|
|---------------------------------------|----------------------------------|
|-----20---17---15--14--17--15--14------|--22---22----22~~-----20--19---17-|
|-15--b--------------------p---p---17~--|--b-----b-------------------------|
|---------------------------------------|----------------------------------|
|---------------------------------------|----------------------------------|
|---------------------------------------|----------------------------------|
|---------------------------------------|----------------------------------|
|--17--19--17-\--15---15---17-15-\12~--\|
|----h---p---------------h---p----------|
|---------------------------------------|
|---------------------------------------|
|---------------------------------------|
|---------------------------------------|

Chords List

Chord: Breaking the Chains - Dokken - tab, song lyric, sheet, guitar, ukulele
Maybe you like