Chord/Tab song: Blue Condition - Cream

Chord,Tablature, lyric, sheet, guitar, ukulele song: Blue Condition - Cream - ( DISRAELI GEARS - CREAM transcribed by MaxxDaddy 5. BLUE ...)

--
DISRAELI GEARS - CREAM
transcribed by MaxxDaddy

5. BLUE CONDITION by Ginger Baker

Intro:


-------------------0---------
--8\--6--5h6p5--3--1---------
-------------------0---------
-10\--7--5h7p5--3--2-------0-
-------------------3-----2---
----------------------3------


Don't take the w[G]rong d[C]ire[G]ction passing through[C][G]
Instead of d[G]eep re[C]fle[G]ction of what's true,[C][G]
For it's a c[G]omb[C]ina[G]tion of judgments made by you[C][G]
That cause a d[G]eep d[C]eje[G]ction all the way through.[C][G]

[C]No relaxation,


-------------
-------------
-8(10)-------
-------10----
----------10-
-------------

no conversation,


----------------------
----------------------
-10(12)10--8(10)------
-----------------10---
----------------------
----------------------

no variation in a very dark [G]blue, blue condit[C]ion.

Early rising every day.
You must be enterprising in your way,
For you will hear no laughter, nor see the sun;
Life would be one disaster all the way through.

Chorus

First Verse

Chorus

Chorus

Chords List

Chord: Blue Condition - Cream - tab, song lyric, sheet, guitar, ukulele
Maybe you like