Chord/Tab song: Bitter - Nine Days

Chord,Tablature, lyric, sheet, guitar, ukulele song: Bitter - Nine Days - ( Song: Bitter Album: The Madding Crowd Transcribed By: RaV...)

--
Song: Bitter
Album: The Madding Crowd
Transcribed By: RaVeNS
E-Mail: revolution_of_tears@hotmail.com

1. Standard Tunning (E A D G B e )
2. Chords Used


-----------


[G] [A] [A/D] [A/Gb] [D] [Dsus2][Em]


e -3- --- -0- -2- -2- -0- -0-
B -3- -2- -2- -2- -3- -3- -0-
G -0- -2- -2- -0- -2- -2- -0-
D -0- -2- -0- --- -0- -4- -2-
A -2- --- --- --- --- --- -2-
E -3- --- --- --- --- --- ---


3. Tab Lecture


-----------


b: Let the note ring
h: Hammer On

Intro:



e ||---2---2---2---2-|----2---2---2---2-|----2---2---2---2-|
B ||---3---3---3---3-|----2---2---2---2-|----3---3---3---3-|
G ||-----------------|------------------|--4---4---4---4---|
D ||-----0---0---0---|--0---0---0---0---|------------------|
A ||-----------------|------------------|------------------|
E ||-----------------|------------------|------------------|
e |-----------------|------------------|------------------|
B |---3---3---3---3-|----3---3---3---3-|----3---3---3---3-|
G |---2---2---2---2-|----2---2---2---2-|----2---2---2---2-|
D |-4---4---4---4---|--5---5---5---5---|--4---4---4---4---|
A |-----------------|------------------|------------------|
E |-----------------|------------------|------------------|
e |-----------------|------------------||
B |---2---2---2---2-|----2---2---2---2-||
G |---2---2---2---2-|----2---2---2---2-||
D |-2---2---2---2---|------------------||
A |-----------------|--0---0---0---0---||
E |-----------------|------------------||


Verse 1:

(Repeat intro's riff)
In my heart, sent my confession, my condolence,
You're indefinite, you're incompetent, inconsiderate.
You're so childish, I'll push you

Out of what is r[D]eal out of my he[A/Gb]ad.
You can stick and dr[D]own at your [Dsus2]residence of disappointm[G]ents,
Are of yours to [D]come.
So embrace them [A]oh my shallow on[A/D]e today

CHORUS:

[G] [A/D] [D] [A]

e ||-3---3---3---3---|-0---0---0---0----|-2---2---2---2----|-0---0---0---0---|
B ||-3---3---3---3---|-2---2---2---2----|-3---3---3---3----|-2---2---2---2---|
G ||-----------------|------------------|------------------|-----------------|
D ||---0---0---0---0-|---0---0---0---0--|---0---0---0---0--|---2---2---2---2-|
A ||-----------------|------------------|------------------|-----------------|
E ||-----------------|------------------|------------------|-----------------|


[G] [A]

e ||-3---3---3---3---|-0---0---0---0----||
B ||-3---3---3---3---|-2---2---2---2----||
G ||-----------------|------------------||
D ||---0---0---0---0-|---2---2---2---2--||
A ||-----------------|------------------||
E ||-----------------|------------------||


If I could change anything
Then I would change everything
These bitter days shall remain

Post-Chorus:



e ||-2---2---2---2---|-2---2---2---2---|-2---2---2---2---|-----------------|
B ||-3---3---3---3---|-2---2---2---2---|-3---3---3---3---|-3---3---3---3---|
G ||-----------------|-----------------|-----------------|-2---2---2---2---|
D ||---0---0---0---0-|---0---0---0---0-|---0---0---0---0-|---4---4---4---4-|
A ||-----------------|-----------------|-----------------|-----------------|
E ||-----------------|-----------------|-----------------|-----------------|
e |-----------------|-----------------|-----------------|-----------------||
B |-3---3---3---3---|-3---3---3---3---|-2---2---2---2---|-2---2---2---2---||
G |-2---2---2---2---|-2---2---2---2---|-2---2---2---2---|-2---2---2---2---||
D |---5---5---5---5-|---4---4---4---4-|---2---2---2---2-|---0---0---0---0-||
A |-----------------|-----------------|-----------------|-----------------||
E |-----------------|-----------------|-----------------|-----------------||


Verse 2:

I don't [D]ask for your for[A/Gb]giveness
I don't care muc[D]h for your actre[Dsus2]ss.
That's just you [G]though shallow and selfi[D]sh.
So I go [A]now oh my hollow[A/D] one today.

CHORUS:

[G]If I could chang[A/D]e anything
[D]Then I would cha[A]nge everything
[G]These bitter day[A]s shall remain

Bridge:

[G]So carry your blues behi[D]nd your eyes,
[G]Don't flatter yourself I[Em] will survive.
[G]So carry your blues your[D] own denial.
[G]Your feathers are gone y[Em]ou'll never fly

CHORUS:

[G]If I could chang[A/D]e anything,
[D]Then I would wip[A]e the years away.
[G]If I could chang[A/D]e anything,
[D]Then I would wip[A]e the years away.
[G]If I could chang[A/D]e anything,
[D]Then I would cha[A]nge everything.
[G]These bitter day[A]s shall remain.

Post-Chorus:



e ||-2---2---2---2---|-2---2---2---2---|-2---2---2---2---|-----------------|
B ||-3---3---3---3---|-2---2---2---2---|-3---3---3---3---|-3---3---3---3---|
G ||-----------------|-----------------|-----------------|-2---2---2---2---|
D ||---0---0---0---0-|---0---0---0---0-|---0---0---0---0-|---4---4---4---4-|
A ||-----------------|-----------------|-----------------|-----------------|
E ||-----------------|-----------------|-----------------|-----------------|
e |-----------------|-----------------|-----------------|-----------------||
B |-3---3---3---3---|-3---3---3---3---|-2---2---2---2---|-2---2---2---2---||
G |-2---2---2---2---|-2---2---2---2---|-2---2---2---2---|-2---2---2---2---||
D |---5---5---5---5-|---4---4---4---4-|---2---2---2---2-|---0---0---0---0-||
A |-----------------|-----------------|-----------------|-----------------||
E |-----------------|-----------------|-----------------|-----------------||


Since you're gone I'm much better than you.

Bridge:

[G] [D] [G] [Em]

e ||--3-----3----------2---2------- 3---3------0---0----||
B ||--3-------3----------3---3--------3---3------0---0--||
G ||--0---------0----2------------0----------0----------||
D ||--0------------0------------------------------------||
A ||----------------------------------------------------||
E ||----------------------------------------------------||


So carry your blues behind your eyes,
Don't flatter yourself I will survive.

[G]So carry your blues your[D] own denial.
[G]Your feathers are gone y[Em]ou'll never fly.

Solo:



e ||----------------------------------------||
B ||-----------------10b--10h12-10-10h12-10-||
G ||---7b---7-7-9-11------------------------|| x4
D ||----------------------------------------||
A ||----------------------------------------||
E ||----------------------------------------||


She'll never fly.

After the Solo you have to play the Chords used on the Bridge (G D G Em) 'til the end of
song.

Chords List

Chord: Bitter - Nine Days - tab, song lyric, sheet, guitar, ukulele
Maybe you like