Chord/Tab song: Awakening of the Gods - Kreator

Chord,Tablature, lyric, sheet, guitar, ukulele song: Awakening of the Gods - Kreator - ( "Awakening of the Gods" by Kreator (rake harmonics) (f...)

--
"Awakening of the Gods" by Kreator

(rake harmonics)


|--| |--| |--| |--|
E|----------------------||---------------------------|
B|-------x----x------------||---------------------------|
G|------------x------||o----7---------------------|
D|--x-------------------||o----7---------------------|
A|-------------------------||-----5---------------------|
E|-------------------------||----------0000-0-0-0000----|

(free time) 4/4 Q ssss e e ssss



|-------------------------|-------------------------|
|-------------------------|-------------------------|
|---6---------------------|---7---------------------|
|---7---------------------|---7---------------------|
|---4---------------------|---5---------------------|
|--------0000-0-0-0000----|--------0000-0-0-0000----|

Q ssss e e ssss Q ssss e e ssss

8x


|-------------------------||---------------|
|-------------------------||---------------|
|---3--2--------3--5-----o||---(5)---------|
|---3--2--5-----3--5-----o||---(5)---------|
|---1--0--5-----1--3------||---(3)---------|
|---------3---------------||---------------|

E E Q E Q. 2/4 H



|--------------------------------------|------------------------------------|
|--------------------------------------|------------------------------------|
|--------------------------------------|------------------------6-------7---|
|----3-------2-------------------------|--3--------2------------7-------7---|
|----1---0-0-0---000000000000---0-1-0--|--1---1111-0---0000-444-4---555-5---|
|-----------------------------3--------|------------------------------------|

4/4 E s s E tx12 s s S S E tttt E tttt tts E tts E



|------------------------------------|------------------------------------|
|------------------------------------|------------------------------------|
|------------------------------------|---------------------6-6-6--7-7-7---|
|--3-------2-------------------------|--3--------2---------7-7-7--7-7-7---|
|--1---0-0-0---000000000000---0-1-0--|--1---1111-0---0000--4-4-4--5-5-5---|
|---------------------------3--------|------------------------------------|

E s s E tx12 s s S S E tttt E tttt (tripl)(tripl)



|--------------------||----------------------------------------|
|--------------------||----------------------------------------|
|--------------------||o---------------------------------------|
|-----3-3-3--2-2-2---||o---3--------2--------------------------|
|-----1-1-1--0-0-0---||----1---1111-0---000000000000---0-1-0---|
|--------------------||------------------------------3---------|

2/4 (tripl)(tripl) 4/4 E tttt E tx12 s s S S



|--------------------------------------|--------|--------|
|--------------------------------------|--------|--------|
|-------------------------6--------7---|-------||
|--3--------2-------------7--------7---|--------|--------|
|--1---1111-0---0000-4444-4---5555-5---|--------|--------|
|--------------------------------------|--------|--------|

E tttt E tttt tttt E tttt E



|------------------------------------|------------------------------------|
|------------------------------------|------------------------------------|
|------------------------------------|------------------------------------|
|------------------------------------|------------------------------------|
|--00000000000000000000000000000000--|--000000000000000000000000----------|
|------------------------------------|---------------------------3-5---3--|

tx32 tx24 S E S



|------|------|-------------------------------------------|-------|
|------|------|-------------------------------------------|-------|
|-----||-------------------------------------------|---|
|------|------|-------------------------------------------|-------|
|------|------|-------3333-1111-0000------3333-1111-0000--|-------|
|------|------|--3333----------------3333-----------------|-------|

tttt tttt tttt tttt tttt tttt tttt tttt



|-------------------------------------------|
|-------------------------------------------|
|-------------------------------------------|
|-------------------------------------------|
|--0000-5555-3333-1111-0000-5555-3333-1111--|
|-------------------------------------------|

tttt tttt tttt tttt tttt tttt tttt tttt



|-------------------------------------------|-------------------------|
|-------------------------------------------|-------------------------|
|-------------------------------------3-----|--(3)--------------------|
|-------------------------------------3-----|--(3)---------------5-3--|
|--0000-5555-3333-1111-0000-5555-3333-1-----|--(1)---------------5-3--|
|-------------------------------------------|--------------------3-1--|

tttt tttt tttt tttt tttt tttt tttt Q (free time) S S



|---------------------------------------|-------|-------|
|---------------------------------------|-------|-------|
|---------------------------------------|---|---|
|----2------------5-2-3------------5-3--|-------|-------|
|----2------------5-2-3------------5-3--|-------|-------|
|----0---000-000--3-0-1---111-111--3-1--|-------|-------|

4/4 E tts tts S S E tts tts S S



|------------------------------------|
|------------------------------------|
|------------------------------------|
|--2------------5-2-3----------------|
|--2------------5-2-3----------------|
|--0---000-000--3-0-1---111-111-111--|

E tts tts S S E tts tts tts

__________________________________ __________________________________
| 1. | | 2. (to bridge) |


|------------------------------------||------------------------------------||
|------------------------------------||------------------------------------||
|-----------------------------------o||------------------------------------||
|--------------------3--2-3--2---2--o||--------------------3--2-3--2-------||
|--------------------1--0-1--0-5-0---||--------------------1--0-1--0-5-3---||
|--1111111111111111------------3-----||--1111111111111111------------3-1---||

tx16 E S E S S S tx16 E S E S S S

_______________________
| 3. (end)


|------------------------------------|-------||
|------------------------------------|-------||
|------------------------------------|-------||
|--------------------3--2-3--2-------|-------||
|--------------------1--0-1--0-5-3---|---2---||
|--1111111111111111------------3-1---|---0---||

tx16 E S E S S S

Bridge:



||-------------------------------------------|
||-------------------------------------------|
||o-------3---3-2------3-------2-----(2)/3---|
||o-------3---3-2------3-------2-----(2)/3---|
||--------1---1-0------1-------0-----(0)/1---|
||----0-0----------0-0-----0-0-----0---------|

s s E S S s s E s s E s S

4x


|-------------------------------------------||
|-------------------------------------------||
|-------3---3-2------3-------5-----(7)\6---o||
|-------3---3-2------3-------5-----(7)\6---o||
|-------1---1-0------1-------3-----(5)\4----||
|---0-0----------0-0-----0-0-----0----------||

s s E S S s s E s s E s S

(pre-bend and release)
|
| 4x


||------------------------------------|---------------------------------||
||------------------------------------|---------------------------------||
||o---`5-------5---------3-------5-3--|---5-------5----3----2----------o||
||o---`5-------5-------3---5-3-2------|---5-------5----3----2--3--2----o||
||----`3---3-3-3---1------------------|---3---3-3-3----1-------1--0-----||
||------------------------------------|---------------------------------||

E s s E E s s s s s S S E s s E. E. e e e

4x


||-----------------------------------|----------------------------------||
||-----------------------------------|----------------------------------||
||o-------------------------5---7-5--|----------------3--------3---3---o||
||o---5-------5-------5-8-7---7------|---5-------5----3--------3---3---o||
||----5-------5---3------------------|---5-------5----1----1-1-1---1----||
||----3---3-3-3----------------------|---3---3-3-3----------------------||

E s s E E s s s s s S S E s s E. E. s s E e

4x


||----------------------------------|------------------------------------||
||----------------------------------|------------------------------------||
||o---------------------------------|-----------------------------------o||
||o---7------7------7------7-7-6-6--|---7------7------------------------o||
||----7------7------7------7-7-6-6--|---7------7-----------10-------9----||
||-------5-5----5-5----5-5-5-5-4-4--|------5-5----5-5--8-8-8----7-7-7----||

E s s E s s E s s S S S S E s s E s s s s E s s E




|---------------------------------|---------------------------------|
|---------------------------------|---------------------------------|
|---------------------------------|---------------------------------|
|---------------------------------|---------------------------------|
|---2------2-----------3------3---|---2------2-----------1------3---|
|---0--0-0-0--0-0--0-0-3--0-0-1---|---0--0-0-0--0-0--0-0-1--0-0-3---|

[E] [s] [s] [E] [s] [s] [s] [s] [E] [s] [s] [E] [E][s][s][E][s][s][s][s][E][s][s][E]



|---------------------------------|---------|
|---------------------------------|---------|
|---------------------------------|----|
|---------------------------------|---------|
|---2------2-----------3------3---|---------|
|---0--0-0-0--0-0--0-0-3--0-0-1---|---------|

[E] [s] [s] [E] [s] [s] [s] [s] [E] [s] [s] [E]



||----------------------------------|---------|---------|---------|
||----------------------------------|---------|---------|---------|
||o---------------------------------|----|----|----|
||o------------------------5---6----|---------|---------|---------|
||----5--------8---6-------3---4----|---------|---------|---------|
||----3---3-3--6---4----------------|---------|---------|---------|

E s s E Q. E E

4x


|--------------------------------|---------|---------|----------||
|--------------------------------|---------|---------|----------||
|--------------------------------|----|----|----27757755204||
|------------5----5-(5)----------|---------|---------|---------o||
|---3--------3----5-(5)----------|---------|---------|----------||
|---1---1-1----------------------|---------|---------|----------||

E s s E. S H

... (and then all the way back to the opening riff) ...

Legend:

Q,E,S quarter note, eighth note, etc
E. dotted eighth note
e,s,t muted eighth note, muted sixteenth note, etc
tx12 twelve muted 32nd notes
4/4,etc time signatures

|-----|
|--| repeat previous measure
|-----|



|-----|-----|

|----|| repeat previous two measures


|-----|-----|


Enjoy! - Ky (kmacphe1@ua1vm.ua.edu)

Chords List

Chord: Awakening of the Gods - Kreator - tab, song lyric, sheet, guitar, ukulele
Maybe you like