Chord/Tab song: Asylum - 7 Minutes In Heaven

Chord,Tablature, lyric, sheet, guitar, ukulele song: Asylum - 7 Minutes In Heaven - ( intro E--------------------------------| B------------...)

3 months ago29 7 Minutes In Heaven
--
intro



E--------------------------------|
B--------------------------------|
G-----0-------0--------0---9--6--|
D----7--7----6-6-----7---7---7--7|
A---9----7------5----------------|
E--------------------------------|
E--------------------------|
B--------------0-----------|
G-------0----0--6----------|
D------7-7--6-6-7----------|
A-----9---7-----5----------|
E--------------------------|


chord

verse:

[G]I might be growing up but I will al[AM]ways be a kid

[C]I'll insist that I am happy
[C]If you ask I'll plead the [C5]fifth
And I[EM]'ve watched the sun come up
More [C]times than I'd like to admit
I'm [C5]growing really TIRED of questi[C5]oning the way I live

chord
[G]Someone medicate this

[C]Cancer we need to [AM]find an
[AM]Answer before we find[C5] that it's too late

[G]The only truth behind the

[AM]Matter is out within this batter

[C5]Causing us to lose our way

verse 2:
[G]I've realized my whole life I've been trying to[AM] fit in
[C]SOON enough it all won't matter
[C]Cause we're all dying in [C5]the end
I[EM]s it really all that selfish to be wanting something more?
[C5]If acceptance is the key
W[C5]hy am I still so fking bored?

chord

[G]Someone medicate this

[C]Cancer we need to [AM]find an
[AM]Answer before we find[C5] that it's too late

[G]The only truth behind the

[AM]Matter is out within thi[C5]s batter

[C5]Causing us to lose our way.
(2x)

Chords List

Chord: Asylum - 7 Minutes In Heaven - tab, song lyric, sheet, guitar, ukulele
Maybe you like