Chord/Tab song: Armed and Fairly Well-Equipped - Turboneger

Chord,Tablature, lyric, sheet, guitar, ukulele song: Armed and Fairly Well-Equipped - Turboneger - ( Turbonegro - Armed and fairly well equipped Tabbed By: BM...)

--
Turbonegro - Armed and fairly well equipped
Tabbed By: BMD
Email: bei_mir_daheim@web.de

Tuning: Standard (E A D G B E)


Intro:
[A5] [E5]

E|--------------------------------------------------------||
B|--------------------------------------------------------||
G|--------------------10-10-10-9-9-9----------------------|| 3x
D|-7-7-7-10-10-10-7-7----------------10-10----------------||
A|--------------------------------------------------------||
E|--------------------------------------------------------||



[A5] [E5]

E|--------------------------------------------------------||
B|--8-8-8-6-6-6-5-5---------------------------------------||
G|------------------7-7-7-5-5-5-4-4-----------------------|| 1x
D|--------------------------------------------------------||
A|--------------------------------------------------------||
E|--------------------------------------------------------||



[A5] [A5] [A5] [A5]
Verse:
A5 C5 F5(8th) E5
You were right I'm left - She's Gone
A5 C5 F5(8th) E5
I know, your gone But we are one
A5 C5 F5(8th) E5
Your hurtin' me '''' No one's tryin'
A5 C5 F5(8th) E5
There's no escape for you and me Hell knows I'm tryin'

[A5] [A5] [A5] [A5]
(same chords)
I'm hot, your cold '''?
I need you I need you now But something's missing -
Teenage drugs Teenage sex
The only cure you gave them
Teenage drugs Teenage sex
I had a heart of gold missin'

Chorus:
[A5]You are my p[F5]rivate Viet [A5]Nam
And all the [F5]bad things that we have [A5]had
You are my p[F5]rivate Viet [A5]Nam
And I just [F5]can't stop shootin'[A5]
You are my p[F5]rivate Viet [A5]Nam
And all the [F5]bad things that we have [A5]had
You are my p[F5]rivate Viet [A5]Nam
I [F5]can't stop shootin'[A5]

[A5] [A5] [A5] [A5]
(Verse)
I'm gone, your gone
We're going nowhere
Look me up, put me down
I know I like it
Took my life to a hole
Hole in the ground
Maybe someday I'll awake
And shoot you down

Chorus

Everything's gonna be alright

Repeat till the end; 2nd guitar plasy the intro over it

Chords List

Chord: Armed and Fairly Well-Equipped - Turboneger - tab, song lyric, sheet, guitar, ukulele
Maybe you like