Chord/Tab song: Antivist - Bring Me the Horizon

Chord,Tablature, lyric, sheet, guitar, ukulele song: Antivist - Bring Me the Horizon - ( TABBED BY andherembrace drop C [B] L R ...)

--
TABBED BY andherembrace

drop C

[B]

----------------------------------------------------------------------|
----------------------------------------------------------------------|
----------------------------------------------------------------------|
----------------------------------------------------------------------|
--^---------------------------------^---------------------------------|
13-12-0-0-0-0-0-0-0-0-0-0-0-0-0-0-13-12-0-0-0-0-0-0-0-0-0-0-0-0-0-0---|
----------------------------------------------------------------------|
----------------------------------------------------------------------|
----------------------------------------------------------------------|
----------------------------------------------------------------------|
--^---------------------------------^---------------------------------|
13-12-0-0-0-0-0-0-0-0-0-0-0-0-0-0-13-12-0-0-0-0-0-0-0-0-0-0-0-0-0-0---|
----------------------------------------------------------------------|
----------------------------------------------------------------------|
----------------------------------------------------------------------|
----------------------------------------------------------------------|
--^---------------------------------^---------------------------------|
13-12-0-0-0-0-0-0-0-0-0-0-0-0-0-0-13-12-0-0-0-0-0-0-0-0-0-0-0-0-0-0---|
---------------------------------------------------------------|
---------------------------------------------------------------|
---------------------------------------------------------------|
---------------------------------------------------------------|
--^---------------------------------^---------------4---3---1--|
13-12-0-0-0-0-0-0-0-0-0-0-0-0-0-0-13-12-0-0-0-0-0-0-4-0-3-0-1--|



L


-----------------------------------------|
-----------------------------------------|
-----------------------------------------|
-----------------------------------------|
----------5------------------5-----------|
-1-0-0-00-0-0-0-0-0-1-0-0-00-0-0-0-0-0---|


R


-----------------------------------------|
-----------------------------------------|
-----------------------------------------|
-----------------------------------------|
-----------------------------------------|
-1-0-0-00-0-0-0-0-0-1-0-0-00-0-0-0-0-0---|


[B]

---------------------------------------|
---------------------------------------|
---------------------------------------|
---------------------------------------|
-----------------------------4---3---1-|
-1-0-0-00-0-0-0-0-0-1-0-0-00-4-0-3-0-1-|




L


-----------------------------------------|
-----------------------------------------|
-----------------------------------------|
-----------------------------------------|
----------5------------------5-----------|
-1-0-0-00-0-0-0-0-0-1-0-0-00-0-0-0-0-0---|


R


-----------------------------------------|
-----------------------------------------|
-----------------------------------------|
-----------------------------------------|
-----------------------------------------|
-1-0-0-00-0-0-0-0-0-1-0-0-00-0-0-0-0-0---|


[B]

---------------------------------------|
---------------------------------------|
---------------------------------------|
---------------------------------------|
-----------------------------4---3---1-|
-1-0-0-00-0-0-0-0-0-1-0-0-00-4-0-3-0-1-|



0:41

L


-------------|
-------------|
-------------|
-_____-------|
-) (-------|
-5-----\-----|


L


--------------------------------------------|
--------------------------------------------|
--------------------------------------------|
--------------------------------------------|
-----------5--------------------5-----------|
-1-0-0-00--0-0-0-0-0-----0-0-00-0-0-0-0-0---|

| |
R


--------------------------------------------|
--------------------------------------------|
--------------------------------------------|
--------------------------------------------|
--------------------------------------------|
-1-0-0-00-0-0-0-0-0------0-0-00-0-0-0-0-0---|

| |

[B]

------------------------------------------|
------------------------------------------|
------------------------------------------|
------------------------------------------|
--------------------------------4---3---1-|
-1-0-0-00-0-0-0-0-0------0-0-00-4-0-3-0-1-|

|




---------------------------------------------------------|
---------------------------------------------------------|
---------------------------------------------------------|
---------------------------------------------------------|
-0-----------1-0-----------1-4--4--4--4--3--3--4---3---1-|
-0-----------1-0-----------1-4--4--4--4--3--3--4-0-3-0-1-|



1:03

L


-----------------------------------------------------------------------|
-----------------------------------------------------------------------|
-----------------------------------------------------------------------|
----------7----------------7-------------------------------------------|
-1-0-0-00-5-00-00-1-0-0-00-5-00-01-4-4-4-44-4-44-44-3-3-3-33-4---3---1-|
-1-0-0-00-0-00-00-1-0-0-00-0-00-01-4-4-4-44-4-44-44-3-3-3-33-4-0-3-0-1-|


R


-----------------------------------------------------------------------|
-----------------------------------------------------------------------|
-----------------------------------------------------------------------|
-----------------------------------------------------------------------|
-1-0-0-00-0-00-00-1-0-0-00-0-00-01-4-4-4-44-4-44-44-3-3-3-33-4---3---1-|
-1-0-0-00-0-00-00-1-0-0-00-0-00-01-4-4-4-44-4-44-44-3-3-3-33-4-0-3-0-1-|



L


-----------------------------------------------------------------------|
-----------------------------------------------------------------------|
-----------------------------------------------------------------------|
----------7----------------7-------------------------------------------|
-1-0-0-00-5-00-00-1-0-0-00-5-00-01-4-4-4-44-4-44-44-3-3-3-33-4---3---1-|
-1-0-0-00-0-00-00-1-0-0-00-0-00-01-4-4-4-44-4-44-44-3-3-3-33-4-0-3-0-1-|


R


-----------------------------------------------------------------------|
-----------------------------------------------------------------------|
-----------------------------------------------------------------------|
-----------------------------------------------------------------------|
-1-0-0-00-0-00-00-1-0-0-00-0-00-01-4-4-4-44-4-44-44-3-3-3-33-4---3---1-|
-1-0-0-00-0-00-00-1-0-0-00-0-00-01-4-4-4-44-4-44-44-3-3-3-33-4-0-3-0-1-|





----------------------------------------------------------------------------|
----------------------------------------------------------------------------|
----------------------------------------------------------------------------|
----------------------------------------------------------------------------|
----------------------------------------------------------------------------|
1-0--00-0--00-0--00-0--00-0-0--1-0--00-0--00-0-13-00-12-13-00-13-16-00-16-19|





-------------------------------------------------|
-------------------------------------------------|
-------------------------------------------------|
-------------------------------------------------|
-------------------------------------------------|
1-1-0--00-0--00-0--00-0--00-0-0--1-0--00-0--00-0-|



L


---------------------|
---------------------|
---------------------|
---------------------|
---------------------|
-0-1-00-1-4-00-4-1---|


R


--------------------------|
--------------------------|
--------------------------|
--------------------------|
--------------------------|
-12-13-00-13-16-00-16-13--|




1:31

L


------------------------------------------|
------------------------------------------|
------------------------------------------|
------------------------------------------|
------------------------------------------|
-0-0-0-0-0-00----0-0-0-0-0-0000-0-0-0-0-0-|


R


------------------------------------------|
------------------------------------------|
------------------------------------------|
------------------------------------------|
------------------------------------------|
-0----------------------------------------|


L


------------------------------------------|
------------------------------------------|
------------------------------------------|
------------------------------------------|
--------------------------------4---3---1-|
-0-0-0-0-0-00----0-0-0-0-0-0000-4-0-3-0-1-|


R


------------------------------------------|
------------------------------------------|
------------------------------------------|
------------------------------------------|
--------------------------------4---3---1-|
--------------------------------4-0-3-0-1-|



L


------------------------------------------|
------------------------------------------|
------------------------------------------|
------------------------------------------|
-5---------------5------------------------|
-0-0-0-0-0-00----0-0-0-0-0-0000-0-0-0-0-0-|


R


------------------------------------------|
------------------------------------------|
------------------------------------------|
------------------------------------------|
------------------------------------------|
------------------------------------------|



L


------------------------------------------|
--------------------------------------3---|
--------------------------------------2---|
------------------------------------------|
-5---------------5------------------------|
-0-0-0-0-0-00----0-0-0-4444441---4\1------|

|
R


------------------------------------------|
------------------------------------------|
------------------------------------------|
------------------------------------------|
------------------------------------------|
------------------------4444441-----------|

|

[B]

------------------------------------------|
------------------------------------------|
------------------------------------------|
------------------------------------------|
------------------------------------------|
-0-0-0-0-0-00----0-0-0-0-0-0000-0-0-0-0-0-|




------------------------------------------|
-------------------------------------3----|
-------------------------------------2----|
------------------------------------------|
------------------------------------------|
-0-0-0-0-0-00----0-0-0-0-0-0000-4\1-------|



L


------------------------------------------|
------------------------------------------|
------------------------------------------|
------------------------------------------|
-5---------------5------------------------|
-0-0-0-0-0-00----0-0-0-0-0-0000-0-0-0-0-0-|



R


------------------------------------------|
------------------------------------------|
------------------------------------------|
------------------------------------------|
------------------------------------------|
-0-0-0-0-0-00----0-0-0-0-0-0000-0-0-0-0-0-|



L


------------------------------------------|
-------------------------------------3----|
-------------------------------------2----|
------------------------------------------|
-5---------------5------------------------|
-0-0-0-0-0-00----0-0-0-0-0-0000-4\1-------|


R


------------------------------------------|
-------------------------------------3----|
-------------------------------------2----|
------------------------------------------|
------------------------------------------|
-0-0-0-0-0-00----0-0-0-0-0-0000-4\1-------|




2:00

SOLO
RING~~~~|


----11-----------11-----------------------------------------------|
-15----15-----15----15---------)(---------------------13---13/16--|
----------14-----------14---11------------------14-------11-------|
----------------------------------13--12---\/12----12-------------|
------------------------------------------------------------------|
------------------------------------------------------------------|


RYTHM


---------------------------------------------------------------------|
------------------------------------------------------------------3--|
------------------------------------------------------------------2--|
---------------------------------------------------------------------|
--------------------------------------------------------------4-1----|
0-0-0-0-0-1--0-0-0-0-0-1--0-0-0-0-0-0-0-0-0-0-1--0-0-0-0-0-1--4-1----|



SOLO
RING~~~~|


----11-----------11---------------------------------------------|
-15----15-----15----15---------)(-------------------------------|
----------14-----------14---11----------------------------------|
----------------------------------13--12------------------------|
------------------------------------------------6~------6--6--5-|
---------------------------------------------00------00---------|


RYTHM


---------------------------------------------------------------------|
------------------------------------------------------------------3--|
------------------------------------------------------------------2--|
---------------------------------------------------------------------|
--------------------------------------------------------------4-1----|
0-0-0-0-0-1--0-0-0-0-0-1--0-0-0-0-0-0-0-0-0-0-1--0-0-0-0-0-1--4-1----|





---------------------------------------------------------------|
---------------------------------------------------------------|
---------------------------------------------------------------|
-------------------------------------------------P-------------|
--------------------------------------------------S------------|
-0-------------------------------------------------\-----------|
---------------------------------------------------------|
---------------------------------------------------------|
---------------------------------------------------------|
---------------------------------------------------------|
-0------------1-0--------------1-4------------4-3--------|
-0------------1-0--------------1-4------------4-3--------|


L


-------------------|
-------------------|
-------------------|
-------------------|
-------------------|
--4-4-4-3-3-3-1-1--|


R


--------------------------|
--------------------------|
--------------------------|
--------------------------|
--------------------------|
/16-16-16-15-15-15-13-13--|
-------------------------------------------------------------|
-------------------------------------------------------------|
-------------------------------------------------------------|
-------------------------------------------------------------|
-0------------1-0--------------1-4--4--4--4--3--3--4---3---1-|
-0------------1-0--------------1-4--4--4--4--3--3--4-0-3-0-1-|




L


-----------------------------------------|
-----------------------------------------|
-----------------------------------------|
-----------------------------------------|
----------5------------------5-----------|
----------0-0-0-0-0-1-0-0-00-0-0-0-0-0---|


R


-----------------------------------------|
-----------------------------------------|
-----------------------------------------|
-----------------------------------------|
-----------------------------------------|
----------0-0-0-0-0-1-0-0-00-0-0-0-0-0---|


[B]

---------------------------------------|
---------------------------------------|
---------------------------------------|
---------------------------------------|
-----------------------------4---3---1-|
-1-0-0-00-0-0-0-0-0-1-0-0-00-4-0-3-0-1-|



L


-----------------------------------------|
-----------------------------------------|
-----------------------------------------|
-----------------------------------------|
----------5------------------5-----------|
-1-0-0-00-0-0-0-0-0-1-0-0-00-0-0-0-0-0---|


R


-----------------------------------------|
-----------------------------------------|
-----------------------------------------|
-----------------------------------------|
-----------------------------------------|
-1-0-0-00-0-0-0-0-0-1-0-0-00-0-0-0-0-0---|


[B]

---------------------------------------|
---------------------------------------|
---------------------------------------|
---------------------------------------|
-----------------------------4---3---1-|
-1-0-0-00-0-0-0-0-0-1-0-0-00-4-0-3-0-1-|




L


----------------------------------|
----------------------------------|
----------------------------------|
----------------------------------|
----------5------------------5----|
-1-0-0-00-0-0-0-0-0-1-0-0-00-0----|

|
R


----------------------------------|
----------------------------------|
----------------------------------|
----------------------------------|
----------------------------------|
-1-0-0-00-0-0-0-0-0-1-0-0-00-0----|

|
[B]

---------------------------------------|
---------------------------------------|
---------------------------------------|
---------------------------------------|
-----------------------------4---3---1-|
-1-0-0-00-0-0-0-0-0-1-0-0-00-4-0-3-0-1-|




L


-----------------------------------------|
--------------6--------------------------|
--------------7--------------------------|
--------------5--------------------------|
--------------5----------5---------------|
-1-1-1--0-0-0----------0-0-0-0-0-0-------|

|
R


-----------------------------------------|
-----------------------------------------|
-------------10101010--------------------|
--------------X-X-X-X--------------------|
-6-6-6-5-5-5--8-8-8-8--------------------|
-----------------------0-0-0-0-0-0-------|

|

L


---------------------------------------------------------------|
---------------------------------------------------------------|
---------------------------------------------------------------|
---------------------------------------------------------------|
---5---------5-------------------------------------------------|
-0-0-0-0-0-0-0-0-0-0-0--44433344111144433344111144433311-0-----|

|



---------------------------------------------------------------|
---------------------------------------------------------------|
---------------------------------------------------------------|
---------------------------------------------------------------|
------------------------99988899666699988899666699988866-------|
-0-0-0-0-0-0-0-0-0-0-0-----------------------------------0-----|

|

Chords List

Chord: Antivist - Bring Me the Horizon - tab, song lyric, sheet, guitar, ukulele
Maybe you like