Chord/Tab song: An Animal in Your Care - Wolf Parade

Chord,Tablature, lyric, sheet, guitar, ukulele song: An Animal in Your Care - Wolf Parade - ( ubi_rex@hotmail.com Time after t[E]ime you will for[G#m]...)

--
ubi_rex@hotmail.com

Time after t[E]ime you will for[G#m]give me
Like an a[G]nimal in your c[B]are
But give it t[E]ime. You will out[G#m]live me
And take the [G]bow back you put in my [B]hair
Made a par[E]ade of myself in the [G#m]street outside your house
For the [G]New York photographer [B]there
I fell for [E]crime and I fell for [G#m]beauty
I fell for [G]you because you're the one that [B]cared

And when I [C]die you can put on [G]costumes
In the [Em]style of the clothes I [Em]wore
And sing the [C]songs your lover [G]taught you
When you were [Em]too young to know that this was [Em] what they were for.

C G Em Em (riff at bottom)
La la la la. La la la lala. lalala
La la la [C]la. La la la [G]lala. lala[Em]la[E]

Like some dead [E]relative, you will re[G#m]member me most
by my [G]funeral and all the [B]beautiful toasts you [E]made
Take back the [G#m]spade. We've both been [G]filling up our days
like we were [B]filling in a grave

(piano/guitar riff at bottom)
Bm Bm Bm Bm D D D D G G D D (repeat lots of times)

[Bm] You [Bm]let me [Bm]hang,[Bm-C#] hang, [D]hang [D]arou[D]nd[D]
[G] You put your [D]ribbons in my-
[Bm]hair [Bm] [Bm] It's [Bm-C#]in this [D]language [D]that I [D]found. I [D]am
an [G]animal [D]in your
Bm Bm Bm Bm-C# D D D D (chords played over riff)
care
[G]animal [D]in your [G]ca-[D]re
Bm Bm Bm Bm-C# D D D D (chords played over riff)
[G]animal [D]in your [G]ca-[D]re
Bm Bm Bm Bm-C# D D D D (chords played over riff)
[G]animal [D]in your [G]ca-[D]re
[G] [D] [G] [D]
I am an [Bm]animal in your care

First riff
[C] [G] [Em]

-----------------------------|
-5-3--3~---------------------|
-----4-----0h2~-0------------|
------------------0----------|
-----------------------------|
-----------------------0-----|


Piano/guitar riff

The piano plays this, or some variation on this



--19-17----17--------7-5---5---------|
--------19----19-15------7---7-3-----|
-------------------------------------|
-------------------------------------|
-------------------------------------|
-------------------------------------|


The guitar plays one of these, or a slight variation


--5/7-5---5-------------|--5h7p5----5------------------------|
--------7---5/3-3/5-3---|---------7---5/3-3/5-3--------------|
----------------------2-|-----------------------2----7-------|
------------------------|----------------------------7--5----|
------------------------|----------------------------5--5----|
------------------------|-------------------------------3----|

Chords List

Chord: An Animal in Your Care - Wolf Parade - tab, song lyric, sheet, guitar, ukulele
Maybe you like