Chord/Tab song: All My Heroes Have Failed Me - Dead to Fall

Chord,Tablature, lyric, sheet, guitar, ukulele song: All My Heroes Have Failed Me - Dead to Fall - ( B standard Intro riff Second Guitar Riff 2 Riff ...)

--
B standard

Intro riff


B ]------------------------------------------------------]
F#]------------------------------------------------------]
D ]-9--9-9------------------9--9-9-----8--8-8--8-8--8----]
A ]------------------------------------------------------]
E ]-7--7-7---2-2--2-2--2-2--7--7-7--2--6--6-6--6-6--6----]
B ]----------0-0--0-0--0-0----------0--------------------]

Second Guitar


B ]------------------------------------------------------][----------------]
F#]------------------------------------------------------][----------------]
D ]-9--9-9------------------9--9-9-----------------------][----------------]
A ]------------------------------------------------------][----------------]
E ]-7--7-7---2-2--2-2--2-2--7--7-7--2--5-7-3-5-2-3-------][2-3-0-2---------]
B ]----------0-0--0-0--0-0----------0-------------5-3-2-0][--------3-5-5320]
B ]------------]
F#]------------]
D ]------------]
A ]------------]
E ]-2----2-----]
B ]-0----0-----]


Riff 2


B ]---------------------------------------------------------------------|
F#]---------------------------------------------------------------------|
D ]-9--9-9-----------------------13--13-13-----9--9-9-----13-13--8--8-8-|
A ]---------------------------------------------------------------------|
E ]-7--7-7------7-----5-------4--11--11-11-----7--7-7-----11-11--6--6-6-|
B ]---------4-5---5-4---4-5-7---------------0----------0----------------|
B ]----------------------------------------------]
F#]----------------------------------------------]
D ]-------------------6--6--6-6--6/8-8-8-8-8/12--]x2
A ]----------------------------------------------]
E ]-----7-----5-------4--4--4-4--4/6-6-6-6-6/10--]
B ]-4-5---5-4---4-5-7----------------------------]


Riff 3


B ]------------------------------------------------------------------]
F#]------------------------------------------------------------------]
D ]------------------------------------------------------------------]
A ]----------------7---------------------------------------------3-5-]
E ]-----9---10---------6-------6---7---3-------3---6-------3-5-6-----]
B ]-0-0---0----0-0---0---0-0-0---0---0---0-0-0---0---3-5-6-----------]
B ]------------------------------------------------------------------]
F#]------------------------------------------------------------------]
D ]------------------------------------------------------------------]
A ]----------------7-----------------------------3-5-------2---------]
E ]-----9---10---------6-------6---7-------3-5-6-----2-3-5---5-3-2---]
B ]-0-0---0----0-0---0---0-0-0---0---3-5-6-------------------------5-]
B ]------------------------------------------------------------------]
F#]------------------------------------------------------------------]
D ]------------------------------------------------------------------]
A ]----------------7---------------------------------------------3-5-]
E ]-----9---10---------6-------6---7---3-------3---6-------3-5-6-----]
B ]-0-0---0----0-0---0---0-0-0---0---0---0-0-0---0---3-5-6-----------]
B ]-------------------------------------------------------------------]
F#]-------------------------------------------------------------------]
D ]--------------------------------------------------3h5p3------------]
A ]----------------7-----------------------------3-5-------6-5-3------]
E ]-----9---10---------6-------6---7-------3-5-6-----------------6-5-3]
B ]-0-0---0----0-0---0---0-0-0---0---3-5-6----------------------------]


Riff 4 Rhythm


B ]---------------------------------------------------------------------]
F#]---------------------------------------------------------------------]
D ]---------------------------------------------------------------------]x2
A ]---------------------------------------------------------------------]
E ]-2--2-2--2-2-------2-2--2-2--2--2--2-------5--5-5--5-5-------5--5--5-]
B ]-0--0-0--0-0-------0-0--0-0--0--0--0-------3--3-3--3-3-------3--3--3-]


Lead


B ]----------------------------------------]
F#]----------------------------------------]
D ]-12-9-9-11-9-9-12-9-9-11-9-9-12-9-11/14-]x2
A ]----------------------------------------]
E ]----------------------------------------]
B ]----------------------------------------]
B ]-------------------------------------------------]
F#]-------------------------------------------------]
D ]-15-12-12-14-12-12-15-12-12-14-12-12-15-12-14/17-]x2
A ]-------------------------------------------------]
E ]-------------------------------------------------]
B ]-------------------------------------------------]


Riff 5


B ]------------------------------------------------------|
F#]------------------------------------------------------|
D ]-9--9-9------------------9--9-9-----8--8-8--8-8--8----|
A ]------------------------------------------------------|
E ]-7--7-7---2-2--2-2--2-2--7--7-7--2--6--6-6--6-6--6----|
B ]----------0-0--0-0--0-0----------0--------------------|
B ]-----------------------------------------------------]
F#]-----------------------------------------------------]
D ]-9--9-9------------------9--9-9----9/13-13-13-8-8----]x2
A ]-----------------------------------------------------]
E ]-7--7-7---2-2--2-2--2-2--7--7-7----7/11-11-11-6-6----]
B ]----------0-0--0-0--0-0------------------------------]
B ]-----------------------------------------------------]
F#]-----------------------------------------------------]
D ]-8--8-8--8-8--8-8--8-8--8--8/9--9-9--9/13----14---13-]
A ]-----------------------------------------------------]
E ]-6--6-6--6-6--6-6--6-6--6--6/7--7-7--7/11--2-12-2-11-]
B ]-------------------------------------------0----0----]
B ]------------------------------------------------------------]
F#]------------------------------------------------------------]
D ]-8--8-8--8-8--8-8--8-8--8--6--------------------------------]
A ]------------------------------------------------------8-7-5-]
E ]-6--6-6--6-6--6-6--6-6--6--4------3---5---6---8---7---------]
B ]--------------------------------0---0---0---0---0---0-------]
B ]-----------------------------------------------------]
F#]-----------------------------------------------------]
D ]-8--8-8--8-8--8-8--8-8--8--8/9--9-9--9/13----14---13-]
A ]-----------------------------------------------------]
E ]-6--6-6--6-6--6-6--6-6--6--6/7--7-7--7/11--2-12-2-11-]
B ]-------------------------------------------0----0----]
B ]---------------------------------------------------------]
F#]---------------------------------------------------------]
D ]-8--8-8--8-8--8-8--8-8--8--6------------8----------------]
A ]---------------------------------------------------------]
E ]-6--6-6--6-6--6-6--6-6--6--4------------6----------------]
B ]---------------------------------------------------------]


Then Riff 3

Then Riff 4 played 4 times all the way through. For the second 2 both play palm muted notes.

Riff 6


B ]--------------------------------------------------------------------|
F#]--------------------------------------------------------------------|
D ]--------------------------------------------------------------------|
A ]-2-------------------------------------2----------------------------|
E ]-2--2-2-2--2-2-2--2-2-2--2-2-2--2-2-2--2--2-2-2--2-2-2----3---3---3-|
B ]-0--0-0-0--0-0-0--0-0-0--0-0-0--0-0-0--0--0-0-0--0-0-0--3---3---3---|
B ]--------------------------------------------------------------------]
F#]--------------------------------------------------------------------]
D ]---------------------------------------9---ring---------------------]x2
A ]-2--------------------------------------------------------------2---]
E ]-2--2-2-2--2-2-2--2-2-2--2-2-2--2-2-2--7---ring-----------3-2-----2-]
B ]-0--0-0-0--0-0-0--0-0-0--0-0-0--0-0-0-------------------3-----5-----]


Rhythm for Solo



B ]--------------------------------------------------------------------|
F#]--------------------------------------------------------------------|
D ]--------------------------------------------------------------------|
A ]-2-------------------------------------2----------------------------|
E ]-2--2-2-2--2-2-2---------2-2-2--2-2-2--2--2-2-2--2-2-2----3---3---3-|
B ]-0--0-0-0--0-0-0---------0-0-0--0-0-0--0--0-0-0--0-0-0--3---3---3---|
B ]--------------------------------------------------------------------|
F#]--------------------------------------------------------------------|
D ]--------------------------------------------------------------------|
A ]-2-------------------------------------2------------------------2---|
E ]-2--2-2-2--2-2-2---------2-2-2--2-2-2--2--2-2-2--2-2-2----3-2-----2-|
B ]-0--0-0-0--0-0-0---------0-0-0--0-0-0--0--0-0-0--0-0-0--3-----5-----|


Solo



B ]-15--12--------------12--17-12----------12-15-12----------12-14-12----|
F#]---------12------12------------12----12----------12----12----------12-|
D ]-------------12-------------------12----------------12----------------|
A ]----------------------------------------------------------------------|
E ]----------------------------------------------------------------------|
B ]----------------------------------------------------------------------|


T


B ]-------12------1215201512-----14-12----------12------------------------|
F#]----12-------13----------13---------12----12---------------------------|
D ]-12--------14--------------14----------12-----------14b-----12---------|
A ]----------------------------------------------------------------14--12-|
E ]-----------------------------------------------------------------------|
B ]-----------------------------------------------------------------------|
B ]-------------------------------------------------------------------|
F#]-------------------131516161513------------------------------------|
D ]-1214151412--121415------------151412----------------14--12--------|
A ]-----------15------------------------1514----12---12--------14--14-|
E ]-------------------------------------------------------------------|
B ]-------------------------------------------------------------------|
B ]----------------------------1315171513---------------------------]
F#]----------------------131516----------161513---------------------]
D ]-16--14---151412121415----------------------151412---------------]
A ]--------------------------------------------------14-------------]
E ]-----------------------------------------------------------------]
B ]-----------------------------------------------------------------]


Riff 6

Then Riff 3

Then Riff 5

End of Song

By:I3pcsulfuricdeth

Chords List

Chord: All My Heroes Have Failed Me - Dead to Fall - tab, song lyric, sheet, guitar, ukulele
Maybe you like