Chord/Tab song: Alecs Gone - The Toy Dolls

Chord,Tablature, lyric, sheet, guitar, ukulele song: Alecs Gone - The Toy Dolls - ( Alec's Gone All chords here are power chords Intro: [F...)

3 months ago22 The Toy Dolls
--
Alec's Gone

All chords here are power chords

Intro:

[F] [F] [A#] [C]


1:-------------------------------|
2:-------------------------------|
3:-------------------------------|
4:--3-2------3-2------3-2--------|
5:-------3--------3--------3-----|
6:-------------------------------|


Verse 1:

[F]Out In The [C]Courtyard, [A#]Cold & It's [F]So H[C]ard

[F]Now Betty's [C]Crying, [A#]She [C]Wants To [A]Die

Coz It's [D]Over, [A]Die, [A#]But [C]She...

[F]Knows That Her [C]Grieving, [A#]It's Not [F]Achi[C]eving

[F]What Bet's Bel[C]ieving, [A#]He W[C]ill Ret[F]urn[C]

Chorus:

[F]Alec's Gone, Alec's Gone, [A#]Alec's [C]Gone

[F]Alec's Gone, Alec's Gone, [A#]Alec's [C]Gone

Interlude:

[D]Away Oo Oo [A#]Oo Gone [D]Away Oo Oo [C]Ooo

Verse 2:

[F]Down In The [C]Rovers, [A#]Bet Can't Get [F]Ove[C]r

[F]What He Said T[C]o Her, [A#]He W[C]ill Re[F]turn[C]

Chorus

He's Go[D]ne, Alec's G[C]one
Done A [D]Bunk, Alec's[C] Gone

Solo ( Olga showed how to play it in his guitar lessons, here's the link:
http://www.thetoydolls.com/media/guitar_menu/2009/2008_01_alecs_gone.rm )

Verse 3:

[F] (only bass pl[C]ays)[A#][F][C]
Betty's Still Dreaming, Inside She's Screaming

[F]Out For The [C]Day That [A#]He W[C]ill Re[F]turn[C]

Chorus (2 times)

Outro:



1:---------------------------------------------|
2:---------------------------------------------|
3:---------------------------------------------|
4:------------------3-------5----3~-----3-3-3--|
5:-1-0----1-0-----4---4---6---6--3~-----3-3-3--|
6:-----1------1------------------1~-----1-0-1--|


I think it is pretty correct, if you find any mistakes or want to comment it or thank
here's my e-mail: shurik666@inbox.ru

Chords List

Chord: Alecs Gone - The Toy Dolls - tab, song lyric, sheet, guitar, ukulele
Maybe you like