Chord/Tab song: again - YUI

Chord,Tablature, lyric, sheet, guitar, ukulele song: again - YUI - ( Intro: [Em] [D] [C] [B7] [Em] [D] [Em] [B7] ...)

--
Intro:


E|---0----------0----------0----------0--------------|
B|------3----------3----------3----------3-----------|
D|----------2----------2----------2---------2--------|
G|---------------------------------------------------|
A|---------------------------------------------------|
E|---------------------------------------------------|


[Em] [D]

E|---------------------------------------------------|
B|---------------------------------------------------|
D|----9--------12----11------------------------------|
G|--------7----------------12~----12\9---------------|
A|---------------------------------------------------|
E|---------------------------------------------------|


[C] [B7]

E|---------------------------------------------------|
B|---------------------------------------------------|
D|---9-------12----11----12b14----12--11----8~-------|
G|-------7-------------------------------------------|
A|---------------------------------------------------|
E|---------------------------------------------------|


[Em] [D]

E|---------------------------------------------------|
B|---------------------------------------------------|
D|----9--------12----11------------------------------|
G|--------7----------------12~----12\9---------------|
A|---------------------------------------------------|
E|---------------------------------------------------|


[Em] [B7]

E|---------------------------------------------------|
B|---------------------------------------------------|
D|----9--------12----11----8----8/9\8/9\8/9\8/9\8~---|
G|--------7------------------------------------------|
A|---------------------------------------------------|
E|---------------------------------------------------|



[Em] Yume no [D]tsuzuki, [C]oikakete ita hazu na no ni

[Em]Magari[D]kunetta, [C]hosoi michi, hito ni tsumazuku

[Em]Ano koro mitai ni tte [D]modoritai wake ja nai no

[C]Nakushite kita sora o, sagashiteru

[Em]Wakatte kuremasu you ni [D]gisei ni natta you na

[C]Kanashii kao wa, yamete yo!

[Em]Tsumi no saigo wa namida ja nai yo, [Em]zutto kurushiku seottekun da

[Em]Deguchi mienai kanjou meiro ni, [C]dare o [D]matteru no

[Em]Shiroi nooto ni tsuzutta you ni, [Em]motto sunao ni hakidashitai yo

[Em]Nani kara, nogaretain da, [C]Genji[D]tsu tte yatsu

[C]Kanaeru tame ni, [D]ikiterun da tte

[Em]Wasurechaisou na, [A]yoru no mannaka

[C]Munan ni nante, [D]yatterarena[Em]i kara

[Em]Kaeru basho mo nai no

[C]Kono omoi o [D]keshite shimau ni wa

[Em]Mada jinsei nagai desho ([A]I'm on my[B] way)

[C]Natsukashiku naru, [D]konna itami mo kangeijan


[(] [Em] [Em] [Em] [D] [)]

[Em] Ayama[D]ranakucha, [C]ikenai yo ne; ah gomen ne

[Em]Umaku ie[D]nakute, s[C]hinpai kaketa mama datta ne

[Em]Ano hi kakaeta zenbu [D]ashita kakaeru zenbu

[C]Junban tsuketari wa, shinai kara

[Em]Wakattekuremasu you ni [D]sotto me wo tojitanda

[C]Mitakunai mono made, miendamon

[Em]Iranai uwasa ni chotto, [Em]hajimete kiku hatsugen docchi

[Em]Mukaiattara tomodachi datte, [C]uso wa [D]yamete ne

[Em]Fukai HAATO ga iradatsu you ni, [Em]karadan naka moeteirun da

[Em]Hontou wa kitai shiten no, [C]Genji[D]tsu tte yatsu

[C]Kanaeru tame ni [D]ikiterun datte

[Em]Sakebitaku naru yo [A]kikoete imas[B]u ka

[C]Bunan ni nante [D]yatterarena[Em]i kara

[Em]Kaeru basho mo nai no

[C]Yasashisa ni wa i[D]tsumo kansha shiteru

[Em]Dakara tsuyoku naritai ([A]I'm on the [B]way)

[C]Susumu tame ni, [D]teki mo mikata mo kangei jan

[F]Douyatte t[G]sugi no DOA a[Am]kerun dakke kang[G]aete[Am]ru

[F]Mou hikika[G]esenai monogat[Am]ari hajimatte[G]run [Am]da

[F]Me wo samase [D]me wo samase

Solo:

[Eb]

E|---------------------------------------------------|
B|---------------------------------------------------|
G|---------------------------------------------------|
D|----13--13--13----12--12--12----8--8---------------|
A|---------------------------------------------------|
E|---------------------------------------------------|


[F]

E|---------------------------------------------------|
B|---------------------------------------------------|
G|---------------------------------------------------|
D|----13--13--13----12--12--12----8--8---------------|
A|---------------------------------------------------|
E|---------------------------------------------------|


[Gm]

E|---------------------------------------------------|
B|---------------------------------------------------|
G|---------------------------------------------------|
D|----8--8--8----12--12--12----12p1312~--------------|
A|---------------------------------------------------|
E|---------------------------------------------------|


[Eb]

E|---------------------------------------------------|
B|---------------------------------------------------|
G|----8--8--8----10--10--10----12--12--12------------|
D|---------------------------------------------------|
A|---------------------------------------------------|
E|---------------------------------------------------|


[F]

E|---------------------------------------------------|
B|---------------------------------------------------|
G|----14--14--14----15--15--15----17--17--17---------|
D|---------------------------------------------------|
A|---------------------------------------------------|
E|---------------------------------------------------|


[D]

E|---------------------------------------------------|
B|---------------------------------------------------|
G|----19----18----18h20\19~--------------------------|
D|---------------------------------------------------|
A|---------------------------------------------------|
E|---------------------------------------------------|



[C]Kono omoi wo [D]keshite shimau ni wa

[Em]Mada jinsei nagai deshou

[C]Yarinokoshiteru koto [D]yarinaoshite [Em]mitai kara
Mou ichido yukou

[C]Kanaeru tame ni [D]ikiterun datte

[Em]Sakebitaku naru yo [A]kikoete imas[B]u ka

[C]Bunan ni nante [D]yatterarenai k[Em]ara

[Em]Kaeru basho mo nai no

[C]Yasashisa ni wa [D]itsumo kansha shiteru

[Em]Dakara tsuyoku naritai [A](I'm on the[B] way)

[C]Natsukashikunaru

[D]Konna itami mo kangei jan


[Em] [D]

E|---------------------------------------------------|
B|---------------------------------------------------|
D|----9--------12----11------------------------------|
G|--------7----------------12~----12\9---------------|
A|---------------------------------------------------|
E|---------------------------------------------------|


[C] [B7]

E|---------------------------------------------------|
B|---------------------------------------------------|
D|---9-------12----11----12b14----12--11----8~-------|
G|-------7-------------------------------------------|
A|---------------------------------------------------|
E|---------------------------------------------------|


[Em] [D]

E|---------------------------------------------------|
B|---------------------------------------------------|
D|----9--------12----11------------------------------|
G|--------7----------------12~----12\9---------------|
A|---------------------------------------------------|
E|---------------------------------------------------|


[Em] [B7]

E|---------------------------------------------------|
B|---------------------------------------------------|
D|----9--------12----11----8----8/9\8/9\8/9\8/9\8~---|
G|--------7------------------------------------------|
A|---------------------------------------------------|
E|---------------------------------------------------|


[Em]

Chords List

Chord: again - YUI - tab, song lyric, sheet, guitar, ukulele
Maybe you like