Hợp âm - tab: A Benediction - Winterpills - cảm âm - lời bài hát

Cảm âm, tablature, hợp âm, tabs guitar, ukulele, lời bài hát: A Benediction - Winterpills - ( A BENEDICTION - Winterpills Tabbed by: Idemockle Tun...)

--

-------------------------------------------------------------------------------

A BENEDICTION - Winterpills


-------------------------------------------------------------------------------

Tabbed by: Idemockle

Tuning: EADGBE (capo, 4th fret)

| h hammer-on
| p pull-off

--Intro--

[Asus2]

e|-----------------------------------------------------------------|
B|-----------------------------------------------------------------|
G|---------------2---------------2---------------2-----------2---2-|
D|-----2-------2-------2-------2-------2-------2-------2-------2---|
A|-----------------------------------------------------------------|
E|-0-------0-------0-------0-------0-------0-------0-------0-------|


[Am] [C] [G] [Em] [C] [Em]

e|-----------3-----2-----0-------------------3-----2-----0---------|
B|-0h1-----------1---1-------1-------------------0---0-------0-----|
G|-------2-----------------------0-------0-----------------------0-|
D|-----2-------2-------2---------------2-------2-------2-----------|
A|-0-------0-------0-------3---2-------------------2-------3---2---|
E|---------------------------------0-------0-----------------------|


Repeat without the first two notes on the B string:

[Am] [C] [G] [Em] [C] [Em]

e|-----------3-----2-----0-------------------3-----2-----0---------|
B|---------------1---1-------1-------------------0---0-------0-----|
G|-------2-----------------------0-------0-----------------------0-|
D|-----2-------2-------2---------------2-------2-------2-----------|
A|-0-------0-------0-------3---2-------------------2-------3---2---|
E|---------------------------------0-------0-----------------------|


Verse:

All the sad boys...


e|-----------3-----2-----0-------------------3-----2-----0---------|
B|---------------1---1-------1-------------------0---0-------0-----|
G|-------2-----------------------0-------0-----------------------0-|
D|-----2-------2-------2---------------2-------2-------2-----------|
A|-0-------0-------0-------3---2-------------------2-------3---2---|
E|---------------------------------0-------0-----------------------|


Drape you in gar- lands...


e|-----------3-----2-----0-----------------------------------2--p0-|
B|---------------1---1-------1---------------0-----0h1-------1-----|
G|-------2-----------------------0-------0-------0-------2-------2-|
D|-----2-------2-------2---------------2-------2-------0-------0---|
A|-0-------0-------0-------3---2-----------------------------------|
E|---------------------------------0-------0-------2-------2-------|


Pour their sto- ries...


e|-----------3-----2-----0-------------------3-----2-----0---------|
B|-0h1-----------1---1-------1-------------------0---0-------0-----|
G|-------2-----------------------0-------0-----------------------0-|
D|-----2-------2-------2---------------2-------2-------2-----------|
A|-0-------0-------0-------3---2-------------------2-------3---2---|
E|---------------------------------0-------0-----------------------|


All the sad boys... home...


e|-----------3-----2-----0-----------------------------------------|
B|---------------1---1-------1---------------0---------------0-----|
G|-------2-----------------------0-------0-------0-------0-------0-|
D|-----2-------2-------2---------------2-------2-------0-------0---|
A|-0-------0-------0-------3---2-----------------------------------|
E|---------------------------------0-------0-------3-------2-------|
e|---------------------------------------------------------|
B|-----------0---------------3---------------3-------1-----|
G|-------0-------0-------0-------0-------0-------0-------0-|
D|-----0-------0-------4-------4-------4-------4-------2---|
A|-3-------2-------5-------5-------5-------5-------3-------|
E|---------------------------------------------------------|


Repeat...

Danh sách hợp âm

Hợp âm: A Benediction - Winterpills - cảm âm, tab guitar, ukulele - lời bài hát
Có thể bạn thích